  0
SECTION
  2
HEADER
  9
$ACADVER
  1
AC1018
  9
$ACADMAINTVER
 70
    39
  9
$DWGCODEPAGE
  3
DOS932
  9
$LASTSAVEDBY
  1
fottrem
  9
$INSBASE
 10
0.0
 20
0.0
 30
0.0
  9
$EXTMIN
 10
97.52270379077947
 20
137.0359395674975
 30
0.0
  9
$EXTMAX
 10
132.6919345648795
 20
145.7197002512582
 30
0.0
  9
$LIMMIN
 10
0.0
 20
0.0
  9
$LIMMAX
 10
279.4
 20
215.9
  9
$ORTHOMODE
 70
     0
  9
$REGENMODE
 70
     1
  9
$FILLMODE
 70
     1
  9
$QTEXTMODE
 70
     0
  9
$MIRRTEXT
 70
     1
  9
$LTSCALE
 40
1.0
  9
$ATTMODE
 70
     1
  9
$TEXTSIZE
 40
3.5
  9
$TRACEWID
 40
1.0
  9
$TEXTSTYLE
  7
Standard
  9
$CLAYER
  8
0
  9
$CELTYPE
  6
ByLayer
  9
$CECOLOR
 62
   256
  9
$CELTSCALE
 40
1.0
  9
$DISPSILH
 70
     0
  9
$DIMSCALE
 40
1.0
  9
$DIMASZ
 40
6.0
  9
$DIMEXO
 40
1.0
  9
$DIMDLI
 40
3.75
  9
$DIMRND
 40
0.0
  9
$DIMDLE
 40
0.0
  9
$DIMEXE
 40
1.0
  9
$DIMTP
 40
0.0
  9
$DIMTM
 40
0.0
  9
$DIMTXT
 40
3.5
  9
$DIMCEN
 40
2.5
  9
$DIMTSZ
 40
0.0
  9
$DIMTOL
 70
     0
  9
$DIMLIM
 70
     0
  9
$DIMTIH
 70
     1
  9
$DIMTOH
 70
     1
  9
$DIMSE1
 70
     0
  9
$DIMSE2
 70
     0
  9
$DIMTAD
 70
     1
  9
$DIMZIN
 70
     0
  9
$DIMBLK
  1

  9
$DIMASO
 70
     1
  9
$DIMSHO
 70
     1
  9
$DIMPOST
  1

  9
$DIMAPOST
  1

  9
$DIMALT
 70
     0
  9
$DIMALTD
 70
     3
  9
$DIMALTF
 40
0.0393700787
  9
$DIMLFAC
 40
2.0
  9
$DIMTOFL
 70
     1
  9
$DIMTVP
 40
0.0
  9
$DIMTIX
 70
     0
  9
$DIMSOXD
 70
     0
  9
$DIMSAH
 70
     0
  9
$DIMBLK1
  1

  9
$DIMBLK2
  1

  9
$DIMSTYLE
  2
ISO-25
  9
$DIMCLRD
 70
     0
  9
$DIMCLRE
 70
     0
  9
$DIMCLRT
 70
     0
  9
$DIMTFAC
 40
1.0
  9
$DIMGAP
 40
1.524
  9
$DIMJUST
 70
     0
  9
$DIMSD1
 70
     0
  9
$DIMSD2
 70
     0
  9
$DIMTOLJ
 70
     0
  9
$DIMTZIN
 70
     0
  9
$DIMALTZ
 70
     0
  9
$DIMALTTZ
 70
     0
  9
$DIMUPT
 70
     0
  9
$DIMDEC
 70
     2
  9
$DIMTDEC
 70
     2
  9
$DIMALTU
 70
     2
  9
$DIMALTTD
 70
     3
  9
$DIMTXSTY
  7
Standard
  9
$DIMAUNIT
 70
     0
  9
$DIMADEC
 70
     0
  9
$DIMALTRND
 40
0.0
  9
$DIMAZIN
 70
     0
  9
$DIMDSEP
 70
    44
  9
$DIMATFIT
 70
     3
  9
$DIMFRAC
 70
     0
  9
$DIMLDRBLK
  1

  9
$DIMLUNIT
 70
     2
  9
$DIMLWD
 70
    -2
  9
$DIMLWE
 70
    -2
  9
$DIMTMOVE
 70
     0
  9
$LUNITS
 70
     2
  9
$LUPREC
 70
     2
  9
$SKETCHINC
 40
1.0
  9
$FILLETRAD
 40
10.0
  9
$AUNITS
 70
     0
  9
$AUPREC
 70
     0
  9
$MENU
  1
.
  9
$ELEVATION
 40
0.0
  9
$PELEVATION
 40
0.0
  9
$THICKNESS
 40
0.0
  9
$LIMCHECK
 70
     0
  9
$CHAMFERA
 40
10.0
  9
$CHAMFERB
 40
10.0
  9
$CHAMFERC
 40
20.0
  9
$CHAMFERD
 40
0.0
  9
$SKPOLY
 70
     0
  9
$TDCREATE
 40
2453354.092125822
  9
$TDUCREATE
 40
2453353.717125822
  9
$TDUPDATE
 40
2454742.374194445
  9
$TDUUPDATE
 40
2454741.999194445
  9
$TDINDWG
 40
0.0486226968
  9
$TDUSRTIMER
 40
0.0486226968
  9
$USRTIMER
 70
     1
  9
$ANGBASE
 50
0.0
  9
$ANGDIR
 70
     0
  9
$PDMODE
 70
     0
  9
$PDSIZE
 40
-1.0
  9
$PLINEWID
 40
0.0
  9
$SPLFRAME
 70
     0
  9
$SPLINETYPE
 70
     6
  9
$SPLINESEGS
 70
     8
  9
$HANDSEED
  5
1E0
  9
$SURFTAB1
 70
     6
  9
$SURFTAB2
 70
     6
  9
$SURFTYPE
 70
     6
  9
$SURFU
 70
     6
  9
$SURFV
 70
     6
  9
$UCSBASE
  2

  9
$UCSNAME
  2

  9
$UCSORG
 10
0.0
 20
0.0
 30
0.0
  9
$UCSXDIR
 10
1.0
 20
0.0
 30
0.0
  9
$UCSYDIR
 10
0.0
 20
1.0
 30
0.0
  9
$UCSORTHOREF
  2

  9
$UCSORTHOVIEW
 70
     0
  9
$UCSORGTOP
 10
0.0
 20
0.0
 30
0.0
  9
$UCSORGBOTTOM
 10
0.0
 20
0.0
 30
0.0
  9
$UCSORGLEFT
 10
0.0
 20
0.0
 30
0.0
  9
$UCSORGRIGHT
 10
0.0
 20
0.0
 30
0.0
  9
$UCSORGFRONT
 10
0.0
 20
0.0
 30
0.0
  9
$UCSORGBACK
 10
0.0
 20
0.0
 30
0.0
  9
$PUCSBASE
  2

  9
$PUCSNAME
  2

  9
$PUCSORG
 10
0.0
 20
0.0
 30
0.0
  9
$PUCSXDIR
 10
1.0
 20
0.0
 30
0.0
  9
$PUCSYDIR
 10
0.0
 20
1.0
 30
0.0
  9
$PUCSORTHOREF
  2

  9
$PUCSORTHOVIEW
 70
     0
  9
$PUCSORGTOP
 10
0.0
 20
0.0
 30
0.0
  9
$PUCSORGBOTTOM
 10
0.0
 20
0.0
 30
0.0
  9
$PUCSORGLEFT
 10
0.0
 20
0.0
 30
0.0
  9
$PUCSORGRIGHT
 10
0.0
 20
0.0
 30
0.0
  9
$PUCSORGFRONT
 10
0.0
 20
0.0
 30
0.0
  9
$PUCSORGBACK
 10
0.0
 20
0.0
 30
0.0
  9
$USERI1
 70
     0
  9
$USERI2
 70
     0
  9
$USERI3
 70
     0
  9
$USERI4
 70
     0
  9
$USERI5
 70
     0
  9
$USERR1
 40
0.0
  9
$USERR2
 40
0.0
  9
$USERR3
 40
0.0
  9
$USERR4
 40
0.0
  9
$USERR5
 40
0.0
  9
$WORLDVIEW
 70
     1
  9
$SHADEDGE
 70
     3
  9
$SHADEDIF
 70
    70
  9
$TILEMODE
 70
     1
  9
$MAXACTVP
 70
    64
  9
$PINSBASE
 10
0.0
 20
0.0
 30
0.0
  9
$PLIMCHECK
 70
     0
  9
$PEXTMIN
 10
1.000000000000000E+20
 20
1.000000000000000E+20
 30
1.000000000000000E+20
  9
$PEXTMAX
 10
-1.000000000000000E+20
 20
-1.000000000000000E+20
 30
-1.000000000000000E+20
  9
$PLIMMIN
 10
0.0
 20
0.0
  9
$PLIMMAX
 10
420.0
 20
297.0
  9
$UNITMODE
 70
     0
  9
$VISRETAIN
 70
     1
  9
$PLINEGEN
 70
     0
  9
$PSLTSCALE
 70
     1
  9
$TREEDEPTH
 70
  3020
  9
$CMLSTYLE
  2
Standard
  9
$CMLJUST
 70
     0
  9
$CMLSCALE
 40
20.0
  9
$PROXYGRAPHICS
 70
     1
  9
$MEASUREMENT
 70
     1
  9
$CELWEIGHT
370
    -1
  9
$ENDCAPS
280
     0
  9
$JOINSTYLE
280
     0
  9
$LWDISPLAY
290
     1
  9
$INSUNITS
 70
     4
  9
$HYPERLINKBASE
  1

  9
$STYLESHEET
  1

  9
$XEDIT
290
     0
  9
$CEPSNTYPE
380
     0
  9
$PSTYLEMODE
290
     1
  9
$FINGERPRINTGUID
  2
{4D907947-14C4-4E89-BA9C-867B1C998784}
  9
$VERSIONGUID
  2
{FAEB1C32-E019-11D5-929B-00C0DF256EC4}
  9
$EXTNAMES
290
     1
  9
$PSVPSCALE
 40
0.0
  9
$OLESTARTUP
290
     0
  9
$SORTENTS
280
   127
  9
$INDEXCTL
280
     0
  9
$HIDETEXT
280
     1
  9
$XCLIPFRAME
290
     0
  9
$HALOGAP
280
     0
  9
$OBSCOLOR
 70
   257
  9
$OBSLTYPE
280
     0
  9
$INTERSECTIONDISPLAY
280
     0
  9
$INTERSECTIONCOLOR
 70
   257
  9
$DIMASSOC
280
     2
  9
$PROJECTNAME
  1

  0
ENDSEC
  0
SECTION
  2
CLASSES
  0
CLASS
  1
ACDBDICTIONARYWDFLT
  2
AcDbDictionaryWithDefault
  3
ObjectDBX Classes
 90
        0
 91
        3
280
     0
281
     0
  0
CLASS
  1
ACDBPLACEHOLDER
  2
AcDbPlaceHolder
  3
ObjectDBX Classes
 90
        0
 91
        1
280
     0
281
     0
  0
CLASS
  1
LAYOUT
  2
AcDbLayout
  3
ObjectDBX Classes
 90
        0
 91
        1
280
     0
281
     0
  0
CLASS
  1
DICTIONARYVAR
  2
AcDbDictionaryVar
  3
ObjectDBX Classes
 90
        0
 91
        3
280
     0
281
     0
  0
CLASS
  1
TABLESTYLE
  2
AcDbTableStyle
  3
ObjectDBX Classes
 90
     2047
 91
        3
280
     0
281
     0
  0
CLASS
  1
SCALE
  2
AcDbScale
  3
ObjectDBX Classes
 90
     1153
 91
       67
280
     1
281
     0
  0
CLASS
  1
VISUALSTYLE
  2
AcDbVisualStyle
  3
ObjectDBX Classes
 90
     4095
 91
       33
280
     1
281
     0
  0
ENDSEC
  0
SECTION
  2
TABLES
  0
TABLE
  2
VPORT
  5
8
330
0
100
AcDbSymbolTable
 70
     2
  0
VPORT
  5
97
330
8
100
AcDbSymbolTableRecord
100
AcDbViewportTableRecord
  2
*Active
 70
     0
 10
0.0
 20
0.0
 11
1.0
 21
1.0
 12
126.6314519496931
 22
146.7102438218652
 13
0.0
 23
0.0
 14
10.0
 24
10.0
 15
10.0
 25
10.0
 16
0.0
 26
0.0
 36
1.0
 17
0.0
 27
0.0
 37
0.0
 40
47.70708663903598
 41
1.2941176471
 42
50.0
 43
0.0
 44
0.0
 50
0.0
 51
0.0
 71
    16
 72
  2000
 73
     1
 74
     1
 75
     0
 76
     0
 77
     0
 78
     0
281
     0
 65
     0
110
0.0
120
0.0
130
0.0
111
1.0
121
0.0
131
0.0
112
0.0
122
1.0
132
0.0
 79
     0
146
0.0
  0
ENDTAB
  0
TABLE
  2
LTYPE
  5
5
330
0
100
AcDbSymbolTable
 70
     6
  0
LTYPE
  5
14
330
5
100
AcDbSymbolTableRecord
100
AcDbLinetypeTableRecord
  2
ByBlock
 70
     0
  3

 72
    65
 73
     0
 40
0.0
  0
LTYPE
  5
15
330
5
100
AcDbSymbolTableRecord
100
AcDbLinetypeTableRecord
  2
ByLayer
 70
     0
  3

 72
    65
 73
     0
 40
0.0
  0
LTYPE
  5
16
330
5
100
AcDbSymbolTableRecord
100
AcDbLinetypeTableRecord
  2
Continuous
 70
     0
  3
Solid line
 72
    65
 73
     0
 40
0.0
  0
LTYPE
  5
1D6
330
5
100
AcDbSymbolTableRecord
100
AcDbLinetypeTableRecord
  2
HIDDEN
 70
     0
  3
Hidden __ __ __ __ __ __ __ __ __ __ __ __ __ __
 72
    65
 73
     2
 40
1.905
 49
1.27
 74
     4
 75
     0
340
0
 46
1.0
 50
0.0
 44
0.0
 45
0.0
 49
-0.635
 74
     4
 75
     0
340
0
 46
1.0
 50
0.0
 44
0.0
 45
0.0
  0
LTYPE
  5
1D7
330
5
100
AcDbSymbolTableRecord
100
AcDbLinetypeTableRecord
  2
PHANTOM
 70
     0
  3
Phantom ______  __  __  ______  __  __  ______
 72
    65
 73
     6
 40
12.7
 49
6.35
 74
     4
 75
     0
340
0
 46
1.0
 50
0.0
 44
0.0
 45
0.0
 49
-1.27
 74
     4
 75
     0
340
0
 46
1.0
 50
0.0
 44
0.0
 45
0.0
 49
1.27
 74
     4
 75
     0
340
0
 46
1.0
 50
0.0
 44
0.0
 45
0.0
 49
-1.27
 74
     4
 75
     0
340
0
 46
1.0
 50
0.0
 44
0.0
 45
0.0
 49
1.27
 74
     4
 75
     0
340
0
 46
1.0
 50
0.0
 44
0.0
 45
0.0
 49
-1.27
 74
     4
 75
     0
340
0
 46
1.0
 50
0.0
 44
0.0
 45
0.0
  0
LTYPE
  5
1D8
330
5
100
AcDbSymbolTableRecord
100
AcDbLinetypeTableRecord
  2
CENTER
 70
     0
  3
Center ____ _ ____ _ ____ _ ____ _ ____ _ ____
 72
    65
 73
     4
 40
10.16
 49
6.35
 74
     4
 75
     0
340
0
 46
1.0
 50
0.0
 44
0.0
 45
0.0
 49
-1.27
 74
     4
 75
     0
340
0
 46
1.0
 50
0.0
 44
0.0
 45
0.0
 49
1.27
 74
     4
 75
     0
340
0
 46
1.0
 50
0.0
 44
0.0
 45
0.0
 49
-1.27
 74
     4
 75
     0
340
0
 46
1.0
 50
0.0
 44
0.0
 45
0.0
  0
LTYPE
  5
1D9
330
5
100
AcDbSymbolTableRecord
100
AcDbLinetypeTableRecord
  2
CENTERX2
 70
     0
  3
Center (2x) ________  __  ________  __  _____
 72
    65
 73
     4
 40
20.32
 49
12.7
 74
     4
 75
     0
340
0
 46
1.0
 50
0.0
 44
0.0
 45
0.0
 49
-2.54
 74
     4
 75
     0
340
0
 46
1.0
 50
0.0
 44
0.0
 45
0.0
 49
2.54
 74
     4
 75
     0
340
0
 46
1.0
 50
0.0
 44
0.0
 45
0.0
 49
-2.54
 74
     4
 75
     0
340
0
 46
1.0
 50
0.0
 44
0.0
 45
0.0
  0
LTYPE
  5
1DA
330
5
100
AcDbSymbolTableRecord
100
AcDbLinetypeTableRecord
  2
DOT2
 70
     0
  3
Dot (.5x) ........................................
 72
    65
 73
     2
 40
0.635
 49
0.0
 74
     4
 75
     0
340
0
 46
1.0
 50
0.0
 44
0.0
 45
0.0
 49
-0.635
 74
     4
 75
     0
340
0
 46
1.0
 50
0.0
 44
0.0
 45
0.0
  0
ENDTAB
  0
TABLE
  2
LAYER
  5
2
330
0
100
AcDbSymbolTable
 70
     2
  0
LAYER
  5
10
330
2
100
AcDbSymbolTableRecord
100
AcDbLayerTableRecord
  2
0
 70
     0
 62
     7
  6
Continuous
370
    -3
390
F
  0
LAYER
  5
1D0
330
2
100
AcDbSymbolTableRecord
100
AcDbLayerTableRecord
  2
DEFPOINTS
 70
     0
 62
     7
  6
Continuous
290
     0
370
    -3
390
F
  0
ENDTAB
  0
TABLE
  2
STYLE
  5
3
330
0
100
AcDbSymbolTable
 70
     1
  0
STYLE
  5
11
330
3
100
AcDbSymbolTableRecord
100
AcDbTextStyleTableRecord
  2
Standard
 70
     0
 40
0.0
 41
1.0
 50
0.0
 71
     0
 42
2.5
  3
txt
  4
bigfont
  0
ENDTAB
  0
TABLE
  2
VIEW
  5
6
330
0
100
AcDbSymbolTable
 70
     0
  0
ENDTAB
  0
TABLE
  2
UCS
  5
7
330
0
100
AcDbSymbolTable
 70
     0
  0
ENDTAB
  0
TABLE
  2
APPID
  5
9
330
0
100
AcDbSymbolTable
 70
     1
  0
APPID
  5
12
330
9
100
AcDbSymbolTableRecord
100
AcDbRegAppTableRecord
  2
ACAD
 70
     0
  0
ENDTAB
  0
TABLE
  2
DIMSTYLE
  5
A
330
0
100
AcDbSymbolTable
 70
     2
100
AcDbDimStyleTable
  0
DIMSTYLE
105
27
330
A
100
AcDbSymbolTableRecord
100
AcDbDimStyleTableRecord
  2
Standard
 70
     0
278
     0
340
11
  0
DIMSTYLE
105
1C8
330
A
100
AcDbSymbolTableRecord
100
AcDbDimStyleTableRecord
  2
ISO-25
 70
     0
 41
2.5
 42
0.625
 43
3.75
 44
1.25
 73
     0
 74
     0
 77
     1
 78
     8
140
2.5
141
2.5
143
0.0393700787
147
0.625
171
     3
172
     1
271
     2
272
     2
274
     3
278
    44
283
     0
284
     8
340
11
  0
ENDTAB
  0
TABLE
  2
BLOCK_RECORD
  5
1
330
0
100
AcDbSymbolTable
 70
     1
  0
BLOCK_RECORD
  5
1F
330
1
100
AcDbSymbolTableRecord
100
AcDbBlockTableRecord
  2
*Model_Space
340
22
  0
BLOCK_RECORD
  5
73
330
1
100
AcDbSymbolTableRecord
100
AcDbBlockTableRecord
  2
*Paper_Space
340
74
  0
BLOCK_RECORD
  5
23
330
1
100
AcDbSymbolTableRecord
100
AcDbBlockTableRecord
  2
*Paper_Space0
340
26
  0
ENDTAB
  0
ENDSEC
  0
SECTION
  2
BLOCKS
  0
BLOCK
  5
20
330
1F
100
AcDbEntity
  8
0
100
AcDbBlockBegin
  2
*Model_Space
 70
     0
 71
     0
 10
0.0
 20
0.0
 30
0.0
  3
*Model_Space
  1

  0
ENDBLK
  5
21
330
1F
100
AcDbEntity
  8
0
100
AcDbBlockEnd
  0
BLOCK
  5
75
330
73
100
AcDbEntity
 67
     1
  8
0
100
AcDbBlockBegin
  2
*Paper_Space
 70
     0
 71
     0
 10
0.0
 20
0.0
 30
0.0
  3
*Paper_Space
  1

  0
ENDBLK
  5
76
330
73
100
AcDbEntity
 67
     1
  8
0
100
AcDbBlockEnd
  0
BLOCK
  5
1DE
330
23
100
AcDbEntity
  8
0
100
AcDbBlockBegin
  2
*Paper_Space0
 70
     0
 71
     0
 10
0.0
 20
0.0
 30
0.0
  3
*Paper_Space0
  1

  0
ENDBLK
  5
1DF
330
23
100
AcDbEntity
  8
0
100
AcDbBlockEnd
  0
ENDSEC
  0
SECTION
  2
ENTITIES
  0
SPLINE
  5
12E
102
{ACAD_REACTORS
330
1D4
102
}
330
1F
100
AcDbEntity
  8
0
  6
Continuous
 62
     7
370
    15
100
AcDbSpline
210
0.0
220
0.0
230
1.0
 70
    12
 71
     3
 72
    19
 73
    15
 74
     0
 42
0.00000001
 43
0.00000001
 40
0.0
 40
0.0
 40
0.0
 40
0.0
 40
0.1049865788993744
 40
0.2050127789369495
 40
0.3033840195569579
 40
0.4044364469544606
 40
0.4581746398636161
 40
0.5153361318849887
 40
0.5784322412591129
 40
0.6479912125752537
 40
0.7244297551612872
 40
0.8074804270819674
 40
0.8996097361564007
 40
1.0
 40
1.0
 40
1.0
 40
1.0
 10
104.0905442450059
 20
142.978338190564
 30
0.0
 41
1.0
 10
104.0890339712755
 20
143.0179612479772
 30
0.0
 41
1.0
 10
104.0860847808393
 20
143.0953352627838
 30
0.0
 41
1.0
 10
104.0528625138698
 20
143.2057712179462
 30
0.0
 41
1.0
 10
104.0015004129071
 20
143.3065662453417
 30
0.0
 41
1.0
 10
103.9422083319721
 20
143.3823204809277
 30
0.0
 41
1.0
 10
103.8818403326432
 20
143.4347765076892
 30
0.0
 41
1.0
 10
103.8266695272213
 20
143.4706257521664
 30
0.0
 41
1.0
 10
103.7606971582271
 20
143.498621181
 30
0.0
 41
1.0
 10
103.6857770246925
 20
143.5230405892887
 30
0.0
 41
1.0
 10
103.6011597397804
 20
143.5402633301194
 30
0.0
 41
1.0
 10
103.5073728413715
 20
143.553527516541
 30
0.0
 41
1.0
 10
103.4039119176798
 20
143.5621429072095
 30
0.0
 41
1.0
 10
103.3314352372397
 20
143.5627422115363
 30
0.0
 41
1.0
 10
103.2936419211544
 20
143.5630547216805
 30
0.0
 41
1.0
  0
SPLINE
  5
12F
102
{ACAD_REACTORS
330
1D4
102
}
330
1F
100
AcDbEntity
  8
0
  6
Continuous
 62
     7
370
    15
100
AcDbSpline
210
0.0
220
0.0
230
1.0
 70
    12
 71
     3
 72
    19
 73
    15
 74
     0
 42
0.00000001
 43
0.00000001
 40
0.0
 40
0.0
 40
0.0
 40
0.0
 40
0.1011602676397751
 40
0.1943288573047252
 40
0.2788514668411839
 40
0.3569897929969035
 40
0.4278649610271444
 40
0.4925581198060198
 40
0.5511028413769691
 40
0.6052579374516409
 40
0.7064336797264361
 40
0.8017452471874674
 40
0.8983457124470104
 40
1.0
 40
1.0
 40
1.0
 40
1.0
 10
103.2213058554493
 20
142.4056776703984
 30
0.0
 41
1.0
 10
103.2610985231522
 20
142.406140023498
 30
0.0
 41
1.0
 10
103.3375402311886
 20
142.4070282037255
 30
0.0
 41
1.0
 10
103.4471055628014
 20
142.413725834992
 30
0.0
 41
1.0
 10
103.5469305292776
 20
142.4271445122057
 30
0.0
 41
1.0
 10
103.6370338981336
 20
142.4452679574076
 30
0.0
 41
1.0
 10
103.7185125955828
 20
142.4662154928822
 30
0.0
 41
1.0
 10
103.7901904287863
 20
142.4933492355881
 30
0.0
 41
1.0
 10
103.8509637270604
 20
142.5280133965344
 30
0.0
 41
1.0
 10
103.9197886741095
 20
142.5767224295156
 30
0.0
 41
1.0
 10
103.987417091347
 20
142.6499272678487
 30
0.0
 41
1.0
 10
104.0476945838677
 20
142.7489829434767
 30
0.0
 41
1.0
 10
104.0838605459593
 20
142.8601837823872
 30
0.0
 41
1.0
 10
104.0882788025772
 20
142.9382897072979
 30
0.0
 41
1.0
 10
104.0905442450059
 20
142.978338190564
 30
0.0
 41
1.0
  0
LINE
  5
130
102
{ACAD_REACTORS
330
1D4
102
}
330
1F
100
AcDbEntity
  8
0
  6
Continuous
 62
     7
370
    15
100
AcDbLine
 10
102.9331676025608
 20
142.4056775126802
 30
0.0
 11
103.2213056886968
 21
142.4056775126802
 31
0.0
  0
LINE
  5
131
102
{ACAD_REACTORS
330
1D4
102
}
330
1F
100
AcDbEntity
  8
0
  6
Continuous
 62
     7
370
    15
100
AcDbLine
 10
102.9331676025608
 20
143.5630546009217
 30
0.0
 11
102.9331676025608
 21
142.4056775126802
 31
0.0
  0
LINE
  5
132
102
{ACAD_REACTORS
330
1D4
102
}
330
1F
100
AcDbEntity
  8
0
  6
Continuous
 62
     7
370
    15
100
AcDbLine
 10
103.2936424187346
 20
143.5630546009217
 30
0.0
 11
102.9331676025608
 21
143.5630546009217
 31
0.0
  0
LINE
  5
133
102
{ACAD_REACTORS
330
1D4
102
}
330
1F
100
AcDbEntity
  8
0
  6
Continuous
 62
     7
370
    15
100
AcDbLine
 10
122.1456262449698
 20
141.2483004245097
 30
0.0
 11
122.1456262449698
 21
138.8563880844133
 31
0.0
  0
LINE
  5
134
102
{ACAD_REACTORS
330
1D4
102
}
330
1F
100
AcDbEntity
  8
0
  6
Continuous
 62
     7
370
    15
100
AcDbLine
 10
123.765954197453
 20
141.2483004245097
 30
0.0
 11
122.1456262449698
 21
141.2483004245097
 31
0.0
  0
LINE
  5
135
102
{ACAD_REACTORS
330
1D4
102
}
330
1F
100
AcDbEntity
  8
0
  6
Continuous
 62
     7
370
    15
100
AcDbLine
 10
123.765954197453
 20
138.8563880844133
 30
0.0
 11
123.765954197453
 21
141.2483004245097
 31
0.0
  0
LINE
  5
136
102
{ACAD_REACTORS
330
1D4
102
}
330
1F
100
AcDbEntity
  8
0
  6
Continuous
 62
     7
370
    15
100
AcDbLine
 10
125.8492328900669
 20
138.8563880844133
 30
0.0
 11
123.765954197453
 21
138.8563880844133
 31
0.0
  0
LINE
  5
137
102
{ACAD_REACTORS
330
1D4
102
}
330
1F
100
AcDbEntity
  8
0
  6
Continuous
 62
     7
370
    15
100
AcDbLine
 10
125.8492328900669
 20
144.8747486783858
 30
0.0
 11
125.8492328900669
 21
138.8563880844133
 31
0.0
  0
LINE
  5
138
102
{ACAD_REACTORS
330
1D4
102
}
330
1F
100
AcDbEntity
  8
0
  6
Continuous
 62
     7
370
    15
100
AcDbLine
 10
123.765954197453
 20
144.8747486783858
 30
0.0
 11
125.8492328900669
 21
144.8747486783858
 31
0.0
  0
LINE
  5
139
102
{ACAD_REACTORS
330
1D4
102
}
330
1F
100
AcDbEntity
  8
0
  6
Continuous
 62
     7
370
    15
100
AcDbLine
 10
123.765954197453
 20
142.8686284804187
 30
0.0
 11
123.765954197453
 21
144.8747486783858
 31
0.0
  0
LINE
  5
13A
102
{ACAD_REACTORS
330
1D4
102
}
330
1F
100
AcDbEntity
  8
0
  6
Continuous
 62
     7
370
    15
100
AcDbLine
 10
122.1456262449698
 20
142.8686284804187
 30
0.0
 11
123.765954197453
 21
142.8686284804187
 31
0.0
  0
LINE
  5
13B
102
{ACAD_REACTORS
330
1D4
102
}
330
1F
100
AcDbEntity
  8
0
  6
Continuous
 62
     7
370
    15
100
AcDbLine
 10
122.1456262449698
 20
144.8747486783858
 30
0.0
 11
122.1456262449698
 21
142.8686284804187
 31
0.0
  0
LINE
  5
13C
102
{ACAD_REACTORS
330
1D4
102
}
330
1F
100
AcDbEntity
  8
0
  6
Continuous
 62
     7
370
    15
100
AcDbLine
 10
120.0623476144825
 20
144.8747486783858
 30
0.0
 11
122.1456262449698
 21
144.8747486783858
 31
0.0
  0
LINE
  5
13D
102
{ACAD_REACTORS
330
1D4
102
}
330
1F
100
AcDbEntity
  8
0
  6
Continuous
 62
     7
370
    15
100
AcDbLine
 10
120.0623476144825
 20
138.8563880844133
 30
0.0
 11
120.0623476144825
 21
144.8747486783858
 31
0.0
  0
LINE
  5
13E
102
{ACAD_REACTORS
330
1D4
102
}
330
1F
100
AcDbEntity
  8
0
  6
Continuous
 62
     7
370
    15
100
AcDbLine
 10
122.1456262449698
 20
138.8563880844133
 30
0.0
 11
120.0623476144825
 21
138.8563880844133
 31
0.0
  0
SPLINE
  5
13F
102
{ACAD_REACTORS
330
1D4
102
}
330
1F
100
AcDbEntity
  8
0
  6
Continuous
 62
     7
370
    15
100
AcDbSpline
210
0.0
220
0.0
230
1.0
 70
    12
 71
     3
 72
    19
 73
    15
 74
     0
 42
0.00000001
 43
0.00000001
 40
0.0
 40
0.0
 40
0.0
 40
0.0
 40
0.0825791784741268
 40
0.1601666397715997
 40
0.2332089812442359
 40
0.3011434206060964
 40
0.3664095384237583
 40
0.4280612444740615
 40
0.4880009490029724
 40
0.5454582168387602
 40
0.657464428163402
 40
0.7667143524710377
 40
0.8792459096475803
 40
1.0
 40
1.0
 40
1.0
 40
1.0
 10
109.028686330476
 20
141.2543286245918
 30
0.0
 41
1.0
 10
109.0294566332564
 20
141.2165356626135
 30
0.0
 41
1.0
 10
109.0309506758255
 20
141.1432342343489
 30
0.0
 41
1.0
 10
109.0402789990692
 20
141.0367913707526
 30
0.0
 41
1.0
 10
109.0571546816729
 20
140.9380848282561
 30
0.0
 41
1.0
 10
109.0800399203407
 20
140.8464245824374
 30
0.0
 41
1.0
 10
109.1095164353278
 20
140.762026415058
 30
0.0
 41
1.0
 10
109.1478584038866
 20
140.6854164761004
 30
0.0
 41
1.0
 10
109.1905362556278
 20
140.6152748435515
 30
0.0
 41
1.0
 10
109.2566112552576
 20
140.533335394305
 30
0.0
 41
1.0
 10
109.3537454284975
 20
140.4488755305748
 30
0.0
 41
1.0
 10
109.4883780592259
 20
140.3745914715556
 30
0.0
 41
1.0
 10
109.6403606084943
 20
140.3298413927556
 30
0.0
 41
1.0
 10
109.7473183913378
 20
140.3249373993941
 30
0.0
 41
1.0
 10
109.8026822335208
 20
140.3223989780907
 30
0.0
 41
1.0
  0
LINE
  5
140
102
{ACAD_REACTORS
330
1D4
102
}
330
1F
100
AcDbEntity
  8
0
  6
Continuous
 62
     7
370
    15
100
AcDbLine
 10
109.0286856980795
 20
144.8747486783858
 30
0.0
 11
109.0286856980795
 21
141.25432870597
 31
0.0
  0
LINE
  5
141
102
{ACAD_REACTORS
330
1D4
102
}
330
1F
100
AcDbEntity
  8
0
  6
Continuous
 62
     7
370
    15
100
AcDbLine
 10
106.9454079984951
 20
144.8747486783858
 30
0.0
 11
109.0286856980795
 21
144.8747486783858
 31
0.0
  0
LINE
  5
142
102
{ACAD_REACTORS
330
1D4
102
}
330
1F
100
AcDbEntity
  8
0
  6
Continuous
 62
     7
370
    15
100
AcDbLine
 10
106.9454079984951
 20
141.3170199208018
 30
0.0
 11
106.9454079984951
 21
144.8747486783858
 31
0.0
  0
SPLINE
  5
143
102
{ACAD_REACTORS
330
1D4
102
}
330
1F
100
AcDbEntity
  8
0
  6
Continuous
 62
     7
370
    15
100
AcDbSpline
210
0.0
220
0.0
230
1.0
 70
    12
 71
     3
 72
    11
 73
     7
 74
     0
 42
0.00000001
 43
0.00000001
 40
0.0
 40
0.0
 40
0.0
 40
0.0
 40
0.2769119979131097
 40
0.5355409088639022
 40
0.7756584810972825
 40
1.0
 40
1.0
 40
1.0
 40
1.0
 10
107.1141917914803
 20
140.3067261638546
 30
0.0
 41
1.0
 10
107.088508572107
 20
140.3980620464193
 30
0.0
 41
1.0
 10
107.0388378653506
 20
140.5747033690389
 30
0.0
 41
1.0
 10
106.9859002730198
 20
140.8352541795612
 30
0.0
 41
1.0
 10
106.952546181857
 20
141.0810615410096
 30
0.0
 41
1.0
 10
106.9477326531444
 20
141.2401685377076
 30
0.0
 41
1.0
 10
106.9454076381683
 20
141.3170198815363
 30
0.0
 41
1.0
  0
SPLINE
  5
144
102
{ACAD_REACTORS
330
1D4
102
}
330
1F
100
AcDbEntity
  8
0
  6
Continuous
 62
     7
370
    15
100
AcDbSpline
210
0.0
220
0.0
230
1.0
 70
    12
 71
     3
 72
    15
 73
    11
 74
     0
 42
0.00000001
 43
0.00000001
 40
0.0
 40
0.0
 40
0.0
 40
0.0
 40
0.1094211769816237
 40
0.2233221160875179
 40
0.3407421265510149
 40
0.4624255610029779
 40
0.5897139998656655
 40
0.7210210453478569
 40
0.8583006581938094
 40
1.0
 40
1.0
 40
1.0
 40
1.0
 10
111.2506091487185
 20
138.9781537570705
 30
0.0
 41
1.0
 10
111.205008200079
 20
138.961802660229
 30
0.0
 41
1.0
 10
111.1119393753168
 20
138.9284310438042
 30
0.0
 41
1.0
 10
110.9658960073433
 20
138.8904456701011
 30
0.0
 41
1.0
 10
110.8138957947701
 20
138.8543191461219
 30
0.0
 41
1.0
 10
110.653942548605
 20
138.8271959678273
 30
0.0
 41
1.0
 10
110.4870208022386
 20
138.8057480308022
 30
0.0
 41
1.0
 10
110.3125234476509
 20
138.789635907429
 30
0.0
 41
1.0
 10
110.131077033889
 20
138.7819273605802
 30
0.0
 41
1.0
 10
110.0076396394823
 20
138.7801382855981
 30
0.0
 41
1.0
 10
109.9449431627409
 20
138.7792295763813
 30
0.0
 41
1.0
  0
SPLINE
  5
145
102
{ACAD_REACTORS
330
1D4
102
}
330
1F
100
AcDbEntity
  8
0
  6
Continuous
 62
     7
370
    15
100
AcDbSpline
210
0.0
220
0.0
230
1.0
 70
    12
 71
     3
 72
    19
 73
    15
 74
     0
 42
0.00000001
 43
0.00000001
 40
0.0
 40
0.0
 40
0.0
 40
0.0
 40
0.086242830661096
 40
0.1714542907367749
 40
0.2553239095828967
 40
0.3393177540189907
 40
0.4228285707114615
 40
0.5054638320157362
 40
0.5895519651609821
 40
0.6748925395116638
 40
0.7595973917997894
 40
0.8413691449334473
 40
0.9211614939216548
 40
1.0
 40
1.0
 40
1.0
 40
1.0
 10
112.7322928945785
 20
141.3170198815363
 30
0.0
 41
1.0
 10
112.7306728129779
 20
141.2321222734573
 30
0.0
 41
1.0
 10
112.7274520241931
 20
141.0633423404838
 30
0.0
 41
1.0
 10
112.6944955044913
 20
140.8138313881699
 30
0.0
 41
1.0
 10
112.6440328477212
 20
140.56980970844
 30
0.0
 41
1.0
 10
112.5735707697841
 20
140.3323667659414
 30
0.0
 41
1.0
 10
112.4803006583411
 20
140.1040414108893
 30
0.0
 41
1.0
 10
112.3603219479313
 20
139.8884385578713
 30
0.0
 41
1.0
 10
112.2168945572073
 20
139.6854695630076
 30
0.0
 41
1.0
 10
112.0496197370005
 20
139.4989827662107
 30
0.0
 41
1.0
 10
111.8668460034379
 20
139.3310602843889
 30
0.0
 41
1.0
 10
111.6717101548133
 20
139.1868146528431
 30
0.0
 41
1.0
 10
111.4673130994986
 20
139.0662116207612
 30
0.0
 41
1.0
 10
111.3225536541419
 20
139.0073884776607
 30
0.0
 41
1.0
 10
111.2506091487185
 20
138.9781537570705
 30
0.0
 41
1.0
  0
LINE
  5
146
102
{ACAD_REACTORS
330
1D4
102
}
330
1F
100
AcDbEntity
  8
0
  6
Continuous
 62
     7
370
    15
100
AcDbLine
 10
112.7322927775648
 20
144.8747486783858
 30
0.0
 11
112.7322927775648
 21
141.3170199208018
 31
0.0
  0
LINE
  5
147
102
{ACAD_REACTORS
330
1D4
102
}
330
1F
100
AcDbEntity
  8
0
  6
Continuous
 62
     7
370
    15
100
AcDbLine
 10
110.6490144159844
 20
144.8747486783858
 30
0.0
 11
112.7322927775648
 21
144.8747486783858
 31
0.0
  0
LINE
  5
148
102
{ACAD_REACTORS
330
1D4
102
}
330
1F
100
AcDbEntity
  8
0
  6
Continuous
 62
     7
370
    15
100
AcDbLine
 10
110.6490144159844
 20
141.25432870597
 30
0.0
 11
110.6490144159844
 21
144.8747486783858
 31
0.0
  0
SPLINE
  5
149
102
{ACAD_REACTORS
330
1D4
102
}
330
1F
100
AcDbEntity
  8
0
  6
Continuous
 62
     7
370
    15
100
AcDbSpline
210
0.0
220
0.0
230
1.0
 70
    12
 71
     3
 72
    23
 73
    19
 74
     0
 42
0.00000001
 43
0.00000001
 40
0.0
 40
0.0
 40
0.0
 40
0.0
 40
0.0674238544404485
 40
0.1318787713031337
 40
0.193996832235441
 40
0.253388793939043
 40
0.3106835817919317
 40
0.3665809546667483
 40
0.4225037008396799
 40
0.4796869598551903
 40
0.5377014592297482
 40
0.595642553472366
 40
0.6551538241787017
 40
0.7175567011892389
 40
0.7829294830395965
 40
0.8513299023472508
 40
0.9233175984302108
 40
1.0
 40
1.0
 40
1.0
 40
1.0
 10
109.8026822335209
 20
140.3223989780907
 30
0.0
 41
1.0
 10
109.8348581756443
 20
140.3230887483201
 30
0.0
 41
1.0
 10
109.8977932265691
 20
140.3244379154819
 30
0.0
 41
1.0
 10
109.989923436664
 20
140.335131626194
 30
0.0
 41
1.0
 10
110.0766685941325
 20
140.3544804269697
 30
0.0
 41
1.0
 10
110.1579289909211
 20
140.380920616036
 30
0.0
 41
1.0
 10
110.2332364371345
 20
140.414709441171
 30
0.0
 41
1.0
 10
110.3025727415299
 20
140.456291019003
 30
0.0
 41
1.0
 10
110.3672590491971
 20
140.5047494201717
 30
0.0
 41
1.0
 10
110.4260801309791
 20
140.5616273850546
 30
0.0
 41
1.0
 10
110.4793612108913
 20
140.6250470956005
 30
0.0
 41
1.0
 10
110.5238981806263
 20
140.6961897829542
 30
0.0
 41
1.0
 10
110.5627938680143
 20
140.7727748688146
 30
0.0
 41
1.0
 10
110.595797470921
 20
140.856035608494
 30
0.0
 41
1.0
 10
110.61931151882
 20
140.9468487542073
 30
0.0
 41
1.0
 10
110.6357299322853
 20
141.0436931775878
 30
0.0
 41
1.0
 10
110.6472101283193
 20
141.1467598897257
 30
0.0
 41
1.0
 10
110.6484003163646
 20
141.21772539653
 30
0.0
 41
1.0
 10
110.6490142022708
 20
141.2543286245918
 30
0.0
 41
1.0
  0
LINE
  5
19E
102
{ACAD_REACTORS
330
1D4
102
}
330
1F
100
AcDbEntity
  8
0
  6
Continuous
 62
     7
370
    15
100
AcDbLine
 10
102.9331676025608
 20
141.0939834352161
 30
0.0
 11
102.9331676025608
 21
138.8563880844133
 31
0.0
  0
LINE
  5
19F
102
{ACAD_REACTORS
330
1D4
102
}
330
1F
100
AcDbEntity
  8
0
  6
Continuous
 62
     7
370
    15
100
AcDbLine
 10
103.7734713829692
 20
141.0939834352161
 30
0.0
 11
102.9331676025608
 21
141.0939834352161
 31
0.0
  0
SPLINE
  5
1A0
102
{ACAD_REACTORS
330
1D4
102
}
330
1F
100
AcDbEntity
  8
0
  6
Continuous
 62
     7
370
    15
100
AcDbSpline
210
0.0
220
0.0
230
1.0
 70
    12
 71
     3
 72
    23
 73
    19
 74
     0
 42
0.00000001
 43
0.00000001
 40
0.0
 40
0.0
 40
0.0
 40
0.0
 40
0.0628288858140453
 40
0.1226488791384478
 40
0.1802468151811628
 40
0.236146383675832
 40
0.290898670657127
 40
0.3454010024432593
 40
0.4001251983617127
 40
0.4559311631083527
 40
0.512788587177787
 40
0.5713806592401266
 40
0.6327225473309942
 40
0.6973913465890008
 40
0.7657839460955372
 40
0.8390120682037053
 40
0.9168404376265044
 40
1.0
 40
1.0
 40
1.0
 40
1.0
 10
106.0966644672281
 20
143.0277678354625
 30
0.0
 41
1.0
 10
106.0953596051869
 20
142.9557314195379
 30
0.0
 41
1.0
 10
106.0928123713039
 20
142.8151084313082
 30
0.0
 41
1.0
 10
106.0637296078093
 20
142.610163915488
 30
0.0
 41
1.0
 10
106.0194167468127
 20
142.4164038489365
 30
0.0
 41
1.0
 10
105.9585941426788
 20
142.2330137675577
 30
0.0
 41
1.0
 10
105.8768081528363
 20
142.0618491056747
 30
0.0
 41
1.0
 10
105.7773403954806
 20
141.9020435897474
 30
0.0
 41
1.0
 10
105.6608126485838
 20
141.7526670043343
 30
0.0
 41
1.0
 10
105.5268978159507
 20
141.6148276689683
 30
0.0
 41
1.0
 10
105.3742176447019
 20
141.4906957134364
 30
0.0
 41
1.0
 10
105.2010683848176
 20
141.3846222750707
 30
0.0
 41
1.0
 10
105.0096076023179
 20
141.2937499968293
 30
0.0
 41
1.0
 10
104.798642440518
 20
141.2211527349922
 30
0.0
 41
1.0
 10
104.569300513559
 20
141.1628285251943
 30
0.0
 41
1.0
 10
104.3207698066103
 20
141.1229067141249
 30
0.0
 41
1.0
 10
104.053250669441
 20
141.0987151738347
 30
0.0
 41
1.0
 10
103.8687674118091
 20
141.0955952828069
 30
0.0
 41
1.0
 10
103.7734711569984
 20
141.0939836789454
 30
0.0
 41
1.0
  0
SPLINE
  5
1A1
102
{ACAD_REACTORS
330
1D4
102
}
330
1F
100
AcDbEntity
  8
0
  6
Continuous
 62
     7
370
    15
100
AcDbSpline
210
0.0
220
0.0
230
1.0
 70
    12
 71
     3
 72
    23
 73
    19
 74
     0
 42
0.00000001
 43
0.00000001
 40
0.0
 40
0.0
 40
0.0
 40
0.0
 40
0.0806854697013979
 40
0.1568332963511636
 40
0.2280032767993815
 40
0.2953314248087546
 40
0.3588224349291773
 40
0.4193878947479587
 40
0.4775640965468981
 40
0.534338551209574
 40
0.5900533914460498
 40
0.6454274649370222
 40
0.7004343627350985
 40
0.7561630933255314
 40
0.8134606212415726
 40
0.8730705378870666
 40
0.9350485051210807
 40
1.0
 40
1.0
 40
1.0
 40
1.0
 10
103.9627505289268
 20
144.8747487131335
 30
0.0
 41
1.0
 10
104.0492148063661
 20
144.8736589063113
 30
0.0
 41
1.0
 10
104.2172807257639
 20
144.8715405819472
 30
0.0
 41
1.0
 10
104.4605780077461
 20
144.8466867488431
 30
0.0
 41
1.0
 10
104.6874211664021
 20
144.8083410783601
 30
0.0
 41
1.0
 10
104.8978632101477
 20
144.7566213226374
 30
0.0
 41
1.0
 10
105.0908901953276
 20
144.6862897981898
 30
0.0
 41
1.0
 10
105.2665991757677
 20
144.6004659594757
 30
0.0
 41
1.0
 10
105.4262188601445
 20
144.5002727313966
 30
0.0
 41
1.0
 10
105.5678112791334
 20
144.3838209969629
 30
0.0
 41
1.0
 10
105.6924897465766
 20
144.2537822350891
 30
0.0
 41
1.0
 10
105.8017918978263
 20
144.112836317301
 30
0.0
 41
1.0
 10
105.892252158623
 20
143.959159166072
 30
0.0
 41
1.0
 10
105.9680292817495
 20
143.7954922172803
 30
0.0
 41
1.0
 10
106.0253157187071
 20
143.6192714951194
 30
0.0
 41
1.0
 10
106.0679149420777
 20
143.4321597003783
 30
0.0
 41
1.0
 10
106.0916701315238
 20
143.2333318740143
 30
0.0
 41
1.0
 10
106.0949738900338
 20
143.0973510385411
 30
0.0
 41
1.0
 10
106.0966644672281
 20
143.0277678354625
 30
0.0
 41
1.0
  0
LINE
  5
1A2
102
{ACAD_REACTORS
330
1D4
102
}
330
1F
100
AcDbEntity
  8
0
  6
Continuous
 62
     7
370
    15
100
AcDbLine
 10
100.8498885789134
 20
144.8747486783858
 30
0.0
 11
103.9627498892902
 21
144.8747486783858
 31
0.0
  0
LINE
  5
1A3
102
{ACAD_REACTORS
330
1D4
102
}
330
1F
100
AcDbEntity
  8
0
  6
Continuous
 62
     7
370
    15
100
AcDbLine
 10
100.8498885789134
 20
138.8563880844133
 30
0.0
 11
100.8498885789134
 21
144.8747486783858
 31
0.0
  0
LINE
  5
1A4
102
{ACAD_REACTORS
330
1D4
102
}
330
1F
100
AcDbEntity
  8
0
  6
Continuous
 62
     7
370
    15
100
AcDbLine
 10
102.9331676025608
 20
138.8563880844133
 30
0.0
 11
100.8498885789134
 21
138.8563880844133
 31
0.0
  0
SPLINE
  5
1A5
102
{ACAD_REACTORS
330
1D4
102
}
330
1F
100
AcDbEntity
  8
0
  6
Continuous
 62
     7
370
    15
100
AcDbSpline
210
0.0
220
0.0
230
1.0
 70
    12
 71
     3
 72
    27
 73
    23
 74
     0
 42
0.00000001
 43
0.00000001
 40
0.0
 40
0.0
 40
0.0
 40
0.0
 40
0.0791834784653923
 40
0.1529224793053276
 40
0.2211730135450981
 40
0.2840527002635898
 40
0.341820792389844
 40
0.3942273428452616
 40
0.4414604105497256
 40
0.483796935190963
 40
0.5227645886159165
 40
0.5600244509011227
 40
0.5956972449090829
 40
0.630362434673843
 40
0.6637360912612098
 40
0.6959906738403216
 40
0.7275638537931352
 40
0.7586066196221898
 40
0.8192146140572218
 40
0.8788758071846189
 40
0.9388699156831022
 40
1.0
 40
1.0
 40
1.0
 40
1.0
 10
116.4093762345892
 20
142.950609365377
 30
0.0
 41
1.0
 10
116.5083410986603
 20
142.9293722232366
 30
0.0
 41
1.0
 10
116.6994662256588
 20
142.8883581570145
 30
0.0
 41
1.0
 10
116.9741835414236
 20
142.8215355484311
 30
0.0
 41
1.0
 10
117.2277428721579
 20
142.7560090251172
 30
0.0
 41
1.0
 10
117.4595000134662
 20
142.6881439213507
 30
0.0
 41
1.0
 10
117.6702945115801
 20
142.6210581925511
 30
0.0
 41
1.0
 10
117.860147207413
 20
142.5542369083817
 30
0.0
 41
1.0
 10
118.0280668656639
 20
142.4852569371438
 30
0.0
 41
1.0
 10
118.1773193939634
 20
142.4163691363915
 30
0.0
 41
1.0
 10
118.3105439042071
 20
142.3439396572024
 30
0.0
 41
1.0
 10
118.4326400736042
 20
142.269314365363
 30
0.0
 41
1.0
 10
118.5455690482896
 20
142.1906485798328
 30
0.0
 41
1.0
 10
118.6491155643679
 20
142.1077017758926
 30
0.0
 41
1.0
 10
118.7434459281769
 20
142.0207549188856
 30
0.0
 41
1.0
 10
118.8286910785541
 20
141.9301595807259
 30
0.0
 41
1.0
 10
118.9032973458367
 20
141.834374689336
 30
0.0
 41
1.0
 10
118.9912597361618
 20
141.7036007006975
 30
0.0
 41
1.0
 10
119.080744462464
 20
141.5312235184796
 30
0.0
 41
1.0
 10
119.1570229622121
 20
141.3132055868374
 30
0.0
 41
1.0
 10
119.2045739503862
 20
141.0859826443089
 30
0.0
 41
1.0
 10
119.2105754759904
 20
140.9310541922464
 30
0.0
 41
1.0
 10
119.213604381758
 20
140.8528634599283
 30
0.0
 41
1.0
  0
SPLINE
  5
1A6
102
{ACAD_REACTORS
330
1D4
102
}
330
1F
100
AcDbEntity
  8
0
  6
Continuous
 62
     7
370
    15
100
AcDbSpline
210
0.0
220
0.0
230
1.0
 70
    12
 71
     3
 72
    11
 73
     7
 74
     0
 42
0.00000001
 43
0.00000001
 40
0.0
 40
0.0
 40
0.0
 40
0.0
 40
0.1638726213237787
 40
0.3809769623260342
 40
0.6591080924750672
 40
1.0
 40
1.0
 40
1.0
 40
1.0
 10
115.8897621626074
 20
143.1435055405908
 30
0.0
 41
1.0
 10
115.914046731958
 20
143.1247597079258
 30
0.0
 41
1.0
 10
115.9705043719705
 20
143.0811787221134
 30
0.0
 41
1.0
 10
116.0858847950412
 20
143.0356200054063
 30
0.0
 41
1.0
 10
116.2342125167575
 20
142.9882898958281
 30
0.0
 41
1.0
 10
116.3471708337884
 20
142.963990746682
 30
0.0
 41
1.0
 10
116.4093762345892
 20
142.950609365377
 30
0.0
 41
1.0
  0
SPLINE
  5
1A7
102
{ACAD_REACTORS
330
1D4
102
}
330
1F
100
AcDbEntity
  8
0
  6
Continuous
 62
     7
370
    15
100
AcDbSpline
210
0.0
220
0.0
230
1.0
 70
    12
 71
     3
 72
    11
 73
     7
 74
     0
 42
0.00000001
 43
0.00000001
 40
0.0
 40
0.0
 40
0.0
 40
0.0
 40
0.2885513440130962
 40
0.5389052394363564
 40
0.7760766685606805
 40
1.0
 40
1.0
 40
1.0
 40
1.0
 10
115.8186316979973
 20
143.3388129179946
 30
0.0
 41
1.0
 10
115.8194383143236
 20
143.3181957738859
 30
0.0
 41
1.0
 10
115.8209447698417
 20
143.2796907133033
 30
0.0
 41
1.0
 10
115.8351824627085
 20
143.2260769579588
 30
0.0
 41
1.0
 10
115.8553810519464
 20
143.1786995421865
 30
0.0
 41
1.0
 10
115.8785234334006
 20
143.1550099930658
 30
0.0
 41
1.0
 10
115.8897621626074
 20
143.1435055405908
 30
0.0
 41
1.0
  0
SPLINE
  5
1A8
102
{ACAD_REACTORS
330
1D4
102
}
330
1F
100
AcDbEntity
  8
0
  6
Continuous
 62
     7
370
    15
100
AcDbSpline
210
0.0
220
0.0
230
1.0
 70
    12
 71
     3
 72
    15
 73
    11
 74
     0
 42
0.00000001
 43
0.00000001
 40
0.0
 40
0.0
 40
0.0
 40
0.0
 40
0.1577172870457821
 40
0.2966893177809286
 40
0.4219570134486621
 40
0.538086075548978
 40
0.6482296179266415
 40
0.7587648990953257
 40
0.8742858067255654
 40
1.0
 40
1.0
 40
1.0
 40
1.0
 10
116.2755545130347
 20
143.7173716618514
 30
0.0
 41
1.0
 10
116.2400797565449
 20
143.7165112042574
 30
0.0
 41
1.0
 10
116.1733465436008
 20
143.714892557492
 30
0.0
 41
1.0
 10
116.0801050804292
 20
143.6952442012697
 30
0.0
 41
1.0
 10
116.0000042564057
 20
143.6642513361034
 30
0.0
 41
1.0
 10
115.9335026006043
 20
143.6204745315909
 30
0.0
 41
1.0
 10
115.881084986894
 20
143.5648431699058
 30
0.0
 41
1.0
 10
115.844590470854
 20
143.4979790954593
 30
0.0
 41
1.0
 10
115.8222502042152
 20
143.4213902528571
 30
0.0
 41
1.0
 10
115.8198713722446
 20
143.3671033199647
 30
0.0
 41
1.0
 10
115.8186316979973
 20
143.3388129179946
 30
0.0
 41
1.0
  0
SPLINE
  5
1A9
102
{ACAD_REACTORS
330
1D4
102
}
330
1F
100
AcDbEntity
  8
0
  6
Continuous
 62
     7
370
    15
100
AcDbSpline
210
0.0
220
0.0
230
1.0
 70
    12
 71
     3
 72
    19
 73
    15
 74
     0
 42
0.00000001
 43
0.00000001
 40
0.0
 40
0.0
 40
0.0
 40
0.0
 40
0.0872174132419226
 40
0.1676278951253219
 40
0.2429081946305455
 40
0.311728481607555
 40
0.3758347636125474
 40
0.4353730266241395
 40
0.4903701586926396
 40
0.5427732374124347
 40
0.6450261233069442
 40
0.7533479033825805
 40
0.8700124009004506
 40
1.0
 40
1.0
 40
1.0
 40
1.0
 10
117.0640176292206
 20
142.9457869609967
 30
0.0
 41
1.0
 10
117.0581466566044
 20
142.9812687495306
 30
0.0
 41
1.0
 10
117.0468629146838
 20
143.049463130746
 30
0.0
 41
1.0
 10
117.0215366782699
 20
143.1463963419955
 30
0.0
 41
1.0
 10
116.996042929506
 20
143.2353631352162
 30
0.0
 41
1.0
 10
116.9659595925964
 20
143.3158540504122
 30
0.0
 41
1.0
 10
116.9309895495098
 20
143.3872108178237
 30
0.0
 41
1.0
 10
116.8922466955509
 20
143.4498853111594
 30
0.0
 41
1.0
 10
116.851453003629
 20
143.505515810677
 30
0.0
 41
1.0
 10
116.7898106696662
 20
143.5664891177839
 30
0.0
 41
1.0
 10
116.6997564183789
 20
143.6282696448421
 30
0.0
 41
1.0
 10
116.5751180599755
 20
143.6820199319987
 30
0.0
 41
1.0
 10
116.4307898169667
 20
143.7112731968345
 30
0.0
 41
1.0
 10
116.3291300248119
 20
143.7152669319603
 30
0.0
 41
1.0
 10
116.2755545130347
 20
143.7173716618514
 30
0.0
 41
1.0
  0
LINE
  5
1AA
102
{ACAD_REACTORS
330
1D4
102
}
330
1F
100
AcDbEntity
  8
0
  6
Continuous
 62
     7
370
    15
100
AcDbLine
 10
119.0592873499822
 20
143.0567021248427
 30
0.0
 11
117.0640175291179
 21
142.9457869749943
 31
0.0
  0
SPLINE
  5
1AB
102
{ACAD_REACTORS
330
1D4
102
}
330
1F
100
AcDbEntity
  8
0
  6
Continuous
 62
     7
370
    15
100
AcDbSpline
210
0.0
220
0.0
230
1.0
 70
    12
 71
     3
 72
    23
 73
    19
 74
     0
 42
0.00000001
 43
0.00000001
 40
0.0
 40
0.0
 40
0.0
 40
0.0
 40
0.0808063786974622
 40
0.1567738545975828
 40
0.2284963943349859
 40
0.2962724126684939
 40
0.3597185713834226
 40
0.4199786545300901
 40
0.4775420181307298
 40
0.5325074255758565
 40
0.5861643761864501
 40
0.6397322608604874
 40
0.6940344501223713
 40
0.7495075120994583
 40
0.8075693616474999
 40
0.8680945504417249
 40
0.932161017427001
 40
1.0
 40
1.0
 40
1.0
 40
1.0
 10
116.4744786937238
 20
144.9519071832189
 30
0.0
 41
1.0
 10
116.5713649675503
 20
144.9504964983854
 30
0.0
 41
1.0
 10
116.7593357051359
 20
144.9477596043116
 30
0.0
 41
1.0
 10
117.0327035088768
 20
144.9273038691742
 30
0.0
 41
1.0
 10
117.2888959753668
 20
144.8928757461324
 30
0.0
 41
1.0
 10
117.5274122720457
 20
144.8437770920265
 30
0.0
 41
1.0
 10
117.748572226146
 20
144.7813519427546
 30
0.0
 41
1.0
 10
117.9521328588985
 20
144.7043286113038
 30
0.0
 41
1.0
 10
118.1382649705976
 20
144.6127092188506
 30
0.0
 41
1.0
 10
118.3079733630314
 20
144.507542478762
 30
0.0
 41
1.0
 10
118.4600893219425
 20
144.3857141097269
 30
0.0
 41
1.0
 10
118.5966620694666
 20
144.2476376631598
 30
0.0
 41
1.0
 10
118.7143758746938
 20
144.0905676094454
 30
0.0
 41
1.0
 10
118.8186869826579
 20
143.9179848591974
 30
0.0
 41
1.0
 10
118.9028912371413
 20
143.7265459208123
 30
0.0
 41
1.0
 10
118.973538131554
 20
143.5190175099796
 30
0.0
 41
1.0
 10
119.0263620448018
 20
143.2939877234836
 30
0.0
 41
1.0
 10
119.0481050251618
 20
143.1372912630598
 30
0.0
 41
1.0
 10
119.0592874415871
 20
143.0567022617446
 30
0.0
 41
1.0
  0
SPLINE
  5
1AC
102
{ACAD_REACTORS
330
1D4
102
}
330
1F
100
AcDbEntity
  8
0
  6
Continuous
 62
     7
370
    15
100
AcDbSpline
210
0.0
220
0.0
230
1.0
 70
    12
 71
     3
 72
    15
 73
    11
 74
     0
 42
0.00000001
 43
0.00000001
 40
0.0
 40
0.0
 40
0.0
 40
0.0
 40
0.1297975719725367
 40
0.2548657880203339
 40
0.3778533561641826
 40
0.4985402748730546
 40
0.6192975542240123
 40
0.7429934610620398
 40
0.8694318879897409
 40
1.0
 40
1.0
 40
1.0
 40
1.0
 10
114.4273680342687
 20
141.9969788991645
 30
0.0
 41
1.0
 10
114.3841665140095
 20
142.0357724188066
 30
0.0
 41
1.0
 10
114.299337581255
 20
142.1119459619895
 30
0.0
 41
1.0
 10
114.190816134065
 20
142.2418771366297
 30
0.0
 41
1.0
 10
114.0969413787238
 20
142.3776487549086
 30
0.0
 41
1.0
 10
114.0222984493298
 20
142.522777531535
 30
0.0
 41
1.0
 10
113.9619427684544
 20
142.6747076516303
 30
0.0
 41
1.0
 10
113.9204970122911
 20
142.835508223102
 30
0.0
 41
1.0
 10
113.8942815382831
 20
143.0040006405447
 30
0.0
 41
1.0
 10
113.8912235224799
 20
143.1188930816031
 30
0.0
 41
1.0
 10
113.8896699458606
 20
143.1772623712531
 30
0.0
 41
1.0
  0
SPLINE
  5
1AD
102
{ACAD_REACTORS
330
1D4
102
}
330
1F
100
AcDbEntity
  8
0
  6
Continuous
 62
     7
370
    15
100
AcDbSpline
210
0.0
220
0.0
230
1.0
 70
    12
 71
     3
 72
    15
 73
    11
 74
     0
 42
0.00000001
 43
0.00000001
 40
0.0
 40
0.0
 40
0.0
 40
0.0
 40
0.1585309627846478
 40
0.3067656184806418
 40
0.4449619553175012
 40
0.5732092333255332
 40
0.6926786530015241
 40
0.8032625156879067
 40
0.9055753033221864
 40
1.0
 40
1.0
 40
1.0
 40
1.0
 10
116.1586112068115
 20
141.2760294443034
 30
0.0
 41
1.0
 10
116.0611636307905
 20
141.2985515011686
 30
0.0
 41
1.0
 10
115.8725975273468
 20
141.3421328469346
 30
0.0
 41
1.0
 10
115.6022729460227
 20
141.418158062695
 30
0.0
 41
1.0
 10
115.3537337711458
 20
141.5000037000243
 30
0.0
 41
1.0
 10
115.1260774651823
 20
141.5865128248713
 30
0.0
 41
1.0
 10
114.919540003864
 20
141.6787625335765
 30
0.0
 41
1.0
 10
114.7344794139913
 20
141.7775797898124
 30
0.0
 41
1.0
 10
114.5703479963055
 20
141.8814866569496
 30
0.0
 41
1.0
 10
114.4737368294894
 20
141.9595244471381
 30
0.0
 41
1.0
 10
114.4273680342687
 20
141.9969788991645
 30
0.0
 41
1.0
  0
SPLINE
  5
1AE
102
{ACAD_REACTORS
330
1D4
102
}
330
1F
100
AcDbEntity
  8
0
  6
Continuous
 62
     7
370
    15
100
AcDbSpline
210
0.0
220
0.0
230
1.0
 70
    12
 71
     3
 72
    15
 73
    11
 74
     0
 42
0.00000001
 43
0.00000001
 40
0.0
 40
0.0
 40
0.0
 40
0.0
 40
0.0699165960901829
 40
0.1539211465444184
 40
0.2543246312861133
 40
0.3706201682590604
 40
0.5021074693358913
 40
0.65102771897746
 40
0.8168341573670324
 40
1.0
 40
1.0
 40
1.0
 40
1.0
 10
117.041111208414
 20
140.9589563562959
 30
0.0
 41
1.0
 10
117.0242258892262
 20
140.9731872560864
 30
0.0
 41
1.0
 10
116.9870529169349
 20
141.0045165331769
 30
0.0
 41
1.0
 10
116.9161431996156
 20
141.0426502634376
 30
0.0
 41
1.0
 10
116.831010584933
 20
141.0841253168147
 30
0.0
 41
1.0
 10
116.7282707167066
 20
141.1230832756444
 30
0.0
 41
1.0
 10
116.6092086529134
 20
141.1610986766095
 30
0.0
 41
1.0
 10
116.4744737460413
 20
141.2013837656246
 30
0.0
 41
1.0
 10
116.3222163862206
 20
141.2393515545744
 30
0.0
 41
1.0
 10
116.2149253087588
 20
141.2634046458167
 30
0.0
 41
1.0
 10
116.1586112068115
 20
141.2760294443034
 30
0.0
 41
1.0
  0
SPLINE
  5
1AF
102
{ACAD_REACTORS
330
1D4
102
}
330
1F
100
AcDbEntity
  8
0
  6
Continuous
 62
     7
370
    15
100
AcDbSpline
210
0.0
220
0.0
230
1.0
 70
    12
 71
     3
 72
    11
 73
     7
 74
     0
 42
0.00000001
 43
0.00000001
 40
0.0
 40
0.0
 40
0.0
 40
0.0
 40
0.2390161746079617
 40
0.4767884771214729
 40
0.7284760530134095
 40
1.0
 40
1.0
 40
1.0
 40
1.0
 10
117.2074841595358
 20
140.6117432409113
 30
0.0
 41
1.0
 10
117.2052140050874
 20
140.643313522772
 30
0.0
 41
1.0
 10
117.2006855103774
 20
140.7062897905304
 30
0.0
 41
1.0
 10
117.1692046034727
 20
140.7984125170246
 30
0.0
 41
1.0
 10
117.1144971111589
 20
140.8837215857326
 30
0.0
 41
1.0
 10
117.066183739743
 20
140.9332521532892
 30
0.0
 41
1.0
 10
117.041111208414
 20
140.9589563562959
 30
0.0
 41
1.0
  0
SPLINE
  5
1B0
102
{ACAD_REACTORS
330
1D4
102
}
330
1F
100
AcDbEntity
  8
0
  6
Continuous
 62
     7
370
    15
100
AcDbSpline
210
0.0
220
0.0
230
1.0
 70
    12
 71
     3
 72
    15
 73
    11
 74
     0
 42
0.00000001
 43
0.00000001
 40
0.0
 40
0.0
 40
0.0
 40
0.0
 40
0.1669794836556816
 40
0.3147026610098523
 40
0.4481494553970115
 40
0.5724703931218329
 40
0.6886193279526511
 40
0.7958196772304543
 40
0.8981450362420833
 40
1.0
 40
1.0
 40
1.0
 40
1.0
 10
116.5034131200059
 20
140.0909235678343
 30
0.0
 41
1.0
 10
116.5578374837124
 20
140.0923843662854
 30
0.0
 41
1.0
 10
116.6604099178056
 20
140.0951375018784
 30
0.0
 41
1.0
 10
116.8038624485496
 20
140.1256764841932
 30
0.0
 41
1.0
 10
116.9273501429959
 20
140.1745154715376
 30
0.0
 41
1.0
 10
117.0285323475108
 20
140.2440339375589
 30
0.0
 41
1.0
 10
117.1069572208711
 20
140.3265451436552
 30
0.0
 41
1.0
 10
117.1655276088335
 20
140.4155328236048
 30
0.0
 41
1.0
 10
117.2015013218671
 20
140.5118681809777
 30
0.0
 41
1.0
 10
117.205492945644
 20
140.578502725658
 30
0.0
 41
1.0
 10
117.2074841595358
 20
140.6117432409113
 30
0.0
 41
1.0
  0
SPLINE
  5
1B1
102
{ACAD_REACTORS
330
1D4
102
}
330
1F
100
AcDbEntity
  8
0
  6
Continuous
 62
     7
370
    15
100
AcDbSpline
210
0.0
220
0.0
230
1.0
 70
    12
 71
     3
 72
    15
 73
    11
 74
     0
 42
0.00000001
 43
0.00000001
 40
0.0
 40
0.0
 40
0.0
 40
0.0
 40
0.132485286676079
 40
0.2587721177337372
 40
0.3805814759519955
 40
0.502004153407816
 40
0.6219630288507288
 40
0.7446042858140826
 40
0.8691072004248203
 40
1.0
 40
1.0
 40
1.0
 40
1.0
 10
115.8535941297548
 20
140.4176414646025
 30
0.0
 41
1.0
 10
115.8743021440852
 20
140.3914018789031
 30
0.0
 41
1.0
 10
115.9147493277446
 20
140.3401503525622
 30
0.0
 41
1.0
 10
115.9841828587301
 20
140.2735282385635
 30
0.0
 41
1.0
 10
116.0585565617613
 20
140.217065597361
 30
0.0
 41
1.0
 10
116.1383101634835
 20
140.1717554666368
 30
0.0
 41
1.0
 10
116.2223586433871
 20
140.1342776066664
 30
0.0
 41
1.0
 10
116.311876044794
 20
140.109990780686
 30
0.0
 41
1.0
 10
116.4059260529659
 20
140.093085893631
 30
0.0
 41
1.0
 10
116.4703798956861
 20
140.0916562659785
 30
0.0
 41
1.0
 10
116.5034131200059
 20
140.0909235678343
 30
0.0
 41
1.0
  0
SPLINE
  5
1B2
102
{ACAD_REACTORS
330
1D4
102
}
330
1F
100
AcDbEntity
  8
0
  6
Continuous
 62
     7
370
    15
100
AcDbSpline
210
0.0
220
0.0
230
1.0
 70
    12
 71
     3
 72
    15
 73
    11
 74
     0
 42
0.00000001
 43
0.00000001
 40
0.0
 40
0.0
 40
0.0
 40
0.0
 40
0.1675865177360835
 40
0.322334592527191
 40
0.4661098007182655
 40
0.5958775979273571
 40
0.7136514065980398
 40
0.8199124680880354
 40
0.9145473075848601
 40
1.0
 40
1.0
 40
1.0
 40
1.0
 10
115.6522587468755
 20
141.0939836789454
 30
0.0
 41
1.0
 10
115.6575933022978
 20
141.0545557319428
 30
0.0
 41
1.0
 10
115.6678537443166
 20
140.9787203282184
 30
0.0
 41
1.0
 10
115.6873702995988
 20
140.8697808794838
 30
0.0
 41
1.0
 10
115.7084909534558
 20
140.7702911186561
 30
0.0
 41
1.0
 10
115.732686343458
 20
140.6805735819365
 30
0.0
 41
1.0
 10
115.7587836510238
 20
140.6006406155175
 30
0.0
 41
1.0
 10
115.7881055793193
 20
140.530920246348
 30
0.0
 41
1.0
 10
115.8171125612502
 20
140.4691891844519
 30
0.0
 41
1.0
 10
115.8418541070891
 20
140.4342298796351
 30
0.0
 41
1.0
 10
115.8535941297548
 20
140.4176414646025
 30
0.0
 41
1.0
  0
LINE
  5
1B3
102
{ACAD_REACTORS
330
1D4
102
}
330
1F
100
AcDbEntity
  8
0
  6
Continuous
 62
     7
370
    15
100
AcDbLine
 10
113.6581947129706
 20
140.9794513827267
 30
0.0
 11
115.652259009942
 21
141.0939834352161
 31
0.0
  0
SPLINE
  5
1B4
102
{ACAD_REACTORS
330
1D4
102
}
330
1F
100
AcDbEntity
  8
0
  6
Continuous
 62
     7
370
    15
100
AcDbSpline
210
0.0
220
0.0
230
1.0
 70
    12
 71
     3
 72
    23
 73
    19
 74
     0
 42
0.00000001
 43
0.00000001
 40
0.0
 40
0.0
 40
0.0
 40
0.0
 40
0.0910786101955556
 40
0.1755395711599866
 40
0.2531364354943444
 40
0.3242433572320576
 40
0.3900395004898994
 40
0.4506698004679688
 40
0.5071524149499528
 40
0.5605124659758859
 40
0.6127220042175063
 40
0.6647836942601235
 40
0.7170026190998516
 40
0.770149317754567
 40
0.8246535805567083
 40
0.880996397125108
 40
0.9393102041684224
 40
1.0
 40
1.0
 40
1.0
 40
1.0
 10
116.4612170816779
 20
138.7792295763813
 30
0.0
 41
1.0
 10
116.3385963903524
 20
138.7810675748824
 30
0.0
 41
1.0
 10
116.1022644620937
 20
138.7846100253875
 30
0.0
 41
1.0
 10
115.7622860857736
 20
138.8118459139288
 30
0.0
 41
1.0
 10
115.4515785079821
 20
138.8582199140352
 30
0.0
 41
1.0
 10
115.16976656553
 20
138.9226589721392
 30
0.0
 41
1.0
 10
114.9166694282463
 20
139.0059070937625
 30
0.0
 41
1.0
 10
114.6928288314298
 20
139.1098710175619
 30
0.0
 41
1.0
 10
114.4974377748593
 20
139.2315826128569
 30
0.0
 41
1.0
 10
114.3308590268292
 20
139.37379360827
 30
0.0
 41
1.0
 10
114.1901850729222
 20
139.5332240577995
 30
0.0
 41
1.0
 10
114.0638349787164
 20
139.7020831910128
 30
0.0
 41
1.0
 10
113.9544831443927
 20
139.8841404817028
 30
0.0
 41
1.0
 10
113.8635831462931
 20
140.0795132098173
 30
0.0
 41
1.0
 10
113.7853918258528
 20
140.2862595088119
 30
0.0
 41
1.0
 10
113.7257974023094
 20
140.506360170327
 30
0.0
 41
1.0
 10
113.6819670810677
 20
140.7386198174113
 30
0.0
 41
1.0
 10
113.666223494603
 20
140.8981128596467
 30
0.0
 41
1.0
 10
113.6581945356042
 20
140.9794515749123
 30
0.0
 41
1.0
  0
SPLINE
  5
1B5
102
{ACAD_REACTORS
330
1D4
102
}
330
1F
100
AcDbEntity
  8
0
  6
Continuous
 62
     7
370
    15
100
AcDbSpline
210
0.0
220
0.0
230
1.0
 70
    12
 71
     3
 72
    31
 73
    27
 74
     0
 42
0.00000001
 43
0.00000001
 40
0.0
 40
0.0
 40
0.0
 40
0.0
 40
0.0361814785092332
 40
0.071948329419839
 40
0.1077762564888081
 40
0.1432375188174176
 40
0.1792210584254222
 40
0.2152410357035878
 40
0.2521905245501301
 40
0.2898278925717733
 40
0.3278045280781526
 40
0.3656414559518947
 40
0.4035566322641131
 40
0.4420011909337195
 40
0.4809067967810856
 40
0.5205950312835361
 40
0.5616208024735713
 40
0.6033149830488546
 40
0.6465559480879868
 40
0.6911139504982619
 40
0.737538857624148
 40
0.7858349598101755
 40
0.8359605316793463
 40
0.8882874736656506
 40
0.9429468389301687
 40
1.0
 40
1.0
 40
1.0
 40
1.0
 10
119.213604381758
 20
140.8528634599283
 30
0.0
 41
1.0
 10
119.2128049378719
 20
140.8061979031907
 30
0.0
 41
1.0
 10
119.2112152114582
 20
140.7134015613314
 30
0.0
 41
1.0
 10
119.194475096403
 20
140.5752660640475
 30
0.0
 41
1.0
 10
119.1696061041732
 20
140.4394368631569
 30
0.0
 41
1.0
 10
119.1343838123174
 20
140.305540811539
 30
0.0
 41
1.0
 10
119.0885590336496
 20
140.1746621057856
 30
0.0
 41
1.0
 10
119.0326582265869
 20
140.0456617049975
 30
0.0
 41
1.0
 10
118.9661019128336
 20
139.919428887957
 30
0.0
 41
1.0
 10
118.8905873099943
 20
139.7953898351553
 30
0.0
 41
1.0
 10
118.8052893431664
 20
139.6763875595081
 30
0.0
 41
1.0
 10
118.7109088155061
 20
139.5640370421723
 30
0.0
 41
1.0
 10
118.6082205069351
 20
139.4582767595745
 30
0.0
 41
1.0
 10
118.4953290748758
 20
139.3614892345033
 30
0.0
 41
1.0
 10
118.3763246644331
 20
139.268505871189
 30
0.0
 41
1.0
 10
118.2459454065498
 20
139.185814318998
 30
0.0
 41
1.0
 10
118.1081928119017
 20
139.1086555259726
 30
0.0
 41
1.0
 10
117.9610140233298
 20
139.0397381488791
 30
0.0
 41
1.0
 10
117.8057163364568
 20
138.978164315438
 30
0.0
 41
1.0
 10
117.6407876040302
 20
138.925524547457
 30
0.0
 41
1.0
 10
117.4672511652301
 20
138.8789557795704
 30
0.0
 41
1.0
 10
117.2837030200825
 20
138.8440479624511
 30
0.0
 41
1.0
 10
117.0915749581284
 20
138.8143889345673
 30
0.0
 41
1.0
 10
116.8899087709743
 20
138.7948888085459
 30
0.0
 41
1.0
 10
116.6788353965436
 20
138.7804877387657
 30
0.0
 41
1.0
 10
116.534785429372
 20
138.7796549124924
 30
0.0
 41
1.0
 10
116.4612170816779
 20
138.7792295763813
 30
0.0
 41
1.0
  0
SPLINE
  5
1B7
102
{ACAD_REACTORS
330
1D4
102
}
330
1F
100
AcDbEntity
  8
0
  6
Continuous
 62
     7
370
    15
100
AcDbSpline
210
0.0
220
0.0
230
1.0
 70
    12
 71
     3
 72
    27
 73
    23
 74
     0
 42
0.00000001
 43
0.00000001
 40
0.0
 40
0.0
 40
0.0
 40
0.0
 40
0.0662636525114246
 40
0.1316365042889932
 40
0.198215285747768
 40
0.2672353152251289
 40
0.3027843157504756
 40
0.3384781595485017
 40
0.374798901756058
 40
0.4117184394440721
 40
0.4494578481846691
 40
0.4884067522865381
 40
0.5285535422153973
 40
0.5700730209314339
 40
0.6137613701652637
 40
0.6600104157750544
 40
0.7089319373095856
 40
0.7608478755935807
 40
0.81576791249716
 40
0.8738982489605629
 40
0.9352715866494735
 40
1.0
 40
1.0
 40
1.0
 40
1.0
 10
113.8896699458606
 20
143.1772623712531
 30
0.0
 41
1.0
 10
113.8927151382336
 20
143.2551338198964
 30
0.0
 41
1.0
 10
113.8987645856104
 20
143.4098298696131
 30
0.0
 41
1.0
 10
113.9538848402103
 20
143.6372214415451
 30
0.0
 41
1.0
 10
114.0398029309265
 20
143.8575190685432
 30
0.0
 41
1.0
 10
114.1403399711951
 20
144.0323290047601
 30
0.0
 41
1.0
 10
114.2367285449937
 20
144.1659344769805
 30
0.0
 41
1.0
 10
114.3194973728606
 20
144.2614383719654
 30
0.0
 41
1.0
 10
114.4098141311564
 20
144.3520657454936
 30
0.0
 41
1.0
 10
114.5090477645916
 20
144.4366601672567
 30
0.0
 41
1.0
 10
114.6170671458558
 20
144.5149761027752
 30
0.0
 41
1.0
 10
114.7327490133175
 20
144.5887606580876
 30
0.0
 41
1.0
 10
114.8573439971537
 20
144.6561652277875
 30
0.0
 41
1.0
 10
114.9908744665762
 20
144.7181239304116
 30
0.0
 41
1.0
 10
115.1348948132949
 20
144.7737254722335
 30
0.0
 41
1.0
 10
115.2906579124037
 20
144.8221500233356
 30
0.0
 41
1.0
 10
115.4589689763825
 20
144.8608328501378
 30
0.0
 41
1.0
 10
115.6385364325084
 20
144.8954341295079
 30
0.0
 41
1.0
 10
115.8307293320991
 20
144.9194344162867
 30
0.0
 41
1.0
 10
116.0344747065896
 20
144.9394693670293
 30
0.0
 41
1.0
 10
116.2505305157704
 20
144.9498356233594
 30
0.0
 41
1.0
 10
116.3985168546823
 20
144.9512045229069
 30
0.0
 41
1.0
 10
116.4744786937238
 20
144.9519071832189
 30
0.0
 41
1.0
  0
SPLINE
  5
1B8
102
{ACAD_REACTORS
330
1D4
102
}
330
1F
100
AcDbEntity
  8
0
  6
Continuous
 62
     7
370
    15
100
AcDbSpline
210
0.0
220
0.0
230
1.0
 70
    12
 71
     3
 72
    23
 73
    19
 74
     0
 42
0.00000001
 43
0.00000001
 40
0.0
 40
0.0
 40
0.0
 40
0.0
 40
0.0634545523927593
 40
0.1297648737392584
 40
0.1989538158796317
 40
0.2711248161027357
 40
0.3420314543449718
 40
0.4082973496978187
 40
0.470461081801045
 40
0.5287942561131591
 40
0.585696312146366
 40
0.6444278800137153
 40
0.7045750156555166
 40
0.7671281181979172
 40
0.8294029338121669
 40
0.8884610514686749
 40
0.9450538549075259
 40
1.0
 40
1.0
 40
1.0
 40
1.0
 10
109.9449431627409
 20
138.7792295763813
 30
0.0
 41
1.0
 10
109.8713828663695
 20
138.7798311977687
 30
0.0
 41
1.0
 10
109.7209516961711
 20
138.7810615164839
 30
0.0
 41
1.0
 10
109.4906709339353
 20
138.7945657203168
 30
0.0
 41
1.0
 10
109.2505926522997
 20
138.8120665020019
 30
0.0
 41
1.0
 10
109.0057878388376
 20
138.8372958569163
 30
0.0
 41
1.0
 10
108.7657609769716
 20
138.8740439284304
 30
0.0
 41
1.0
 10
108.5404867100673
 20
138.9266033581024
 30
0.0
 41
1.0
 10
108.3346129096731
 20
138.9946942482439
 30
0.0
 41
1.0
 10
108.1471291022711
 20
139.0801909656783
 30
0.0
 41
1.0
 10
107.9737316367876
 20
139.1838639051593
 30
0.0
 41
1.0
 10
107.8101211213097
 20
139.3058407458918
 30
0.0
 41
1.0
 10
107.65376731499
 20
139.4468981685648
 30
0.0
 41
1.0
 10
107.5073916621442
 20
139.6039164952821
 30
0.0
 41
1.0
 10
107.3762941858776
 20
139.7724422456268
 30
0.0
 41
1.0
 10
107.266212213568
 20
139.9470676625284
 30
0.0
 41
1.0
 10
107.1754634481029
 20
140.1234751920551
 30
0.0
 41
1.0
 10
107.1344136699774
 20
140.2462466682694
 30
0.0
 41
1.0
 10
107.1141917914803
 20
140.3067261638546
 30
0.0
 41
1.0
  0
HATCH
  5
1D4
330
1F
100
AcDbEntity
  8
0
100
AcDbHatch
 10
0.0
 20
0.0
 30
0.0
210
0.0
220
0.0
230
1.0
  2
_USER
 70
     0
 71
     1
 91
        5
 92
        7
 72
     0
 73
     1
 93
       12
 10
120.0623476144825
 20
138.8563880844133
 10
122.1456262449698
 20
138.8563880844133
 10
122.1456262449698
 20
141.2483004245097
 10
123.765954197453
 20
141.2483004245097
 10
123.765954197453
 20
138.8563880844133
 10
125.8492328900669
 20
138.8563880844133
 10
125.8492328900669
 20
144.8747486783858
 10
123.765954197453
 20
144.8747486783858
 10
123.765954197453
 20
142.8686284804187
 10
122.1456262449698
 20
142.8686284804187
 10
122.1456262449698
 20
144.8747486783858
 10
120.0623476144825
 20
144.8747486783858
 97
       12
330
13E
330
133
330
134
330
135
330
136
330
137
330
138
330
139
330
13A
330
13B
330
13C
330
13D
 92
        5
 93
        7
 72
     1
 10
100.8498885789134
 20
138.8563880844133
 11
102.9331676025608
 21
138.8563880844133
 72
     1
 10
102.9331676025608
 20
138.8563880844133
 11
102.9331676025608
 21
141.0939834352161
 72
     1
 10
102.9331676025608
 20
141.0939834352161
 11
103.7734713829692
 21
141.0939834352161
 72
     4
 94
        3
 73
     0
 74
     0
 95
       23
 96
       19
 40
0.0
 40
0.0
 40
0.0
 40
0.0
 40
0.0831595623734956
 40
0.1609879317962947
 40
0.2342160539044628
 40
0.3026086534109992
 40
0.3672774526690058
 40
0.4286193407598734
 40
0.487211412822213
 40
0.5440688368916473
 40
0.5998748016382873
 40
0.6545989975567408
 40
0.709101329342873
 40
0.763853616324168
 40
0.8197531848188372
 40
0.8773511208615522
 40
0.9371711141859547
 40
1.0
 40
1.0
 40
1.0
 40
1.0
 10
103.7734711569984
 20
141.0939836789454
 10
103.8687674118091
 20
141.0955952828069
 10
104.053250669441
 20
141.0987151738347
 10
104.3207698066103
 20
141.1229067141249
 10
104.569300513559
 20
141.1628285251943
 10
104.798642440518
 20
141.2211527349922
 10
105.0096076023179
 20
141.2937499968293
 10
105.2010683848176
 20
141.3846222750707
 10
105.3742176447019
 20
141.4906957134364
 10
105.5268978159507
 20
141.6148276689683
 10
105.6608126485838
 20
141.7526670043343
 10
105.7773403954806
 20
141.9020435897474
 10
105.8768081528363
 20
142.0618491056747
 10
105.9585941426788
 20
142.2330137675577
 10
106.0194167468127
 20
142.4164038489365
 10
106.0637296078093
 20
142.610163915488
 10
106.0928123713039
 20
142.8151084313082
 10
106.0953596051869
 20
142.9557314195379
 10
106.0966644672281
 20
143.0277678354625
 72
     4
 94
        3
 73
     0
 74
     0
 95
       23
 96
       19
 40
0.0
 40
0.0
 40
0.0
 40
0.0
 40
0.0649514948789193
 40
0.1269294621129334
 40
0.1865393787584274
 40
0.2438369066744686
 40
0.2995656372649015
 40
0.3545725350629778
 40
0.4099466085539502
 40
0.465661448790426
 40
0.5224359034531019
 40
0.5806121052520413
 40
0.6411775650708227
 40
0.7046685751912454
 40
0.7719967232006185
 40
0.8431667036488364
 40
0.9193145302986021
 40
1.0
 40
1.0
 40
1.0
 40
1.0
 10
106.0966644672281
 20
143.0277678354625
 10
106.0949738900338
 20
143.0973510385411
 10
106.0916701315238
 20
143.2333318740143
 10
106.0679149420777
 20
143.4321597003783
 10
106.0253157187071
 20
143.6192714951194
 10
105.9680292817495
 20
143.7954922172803
 10
105.892252158623
 20
143.959159166072
 10
105.8017918978263
 20
144.112836317301
 10
105.6924897465766
 20
144.2537822350891
 10
105.5678112791334
 20
144.3838209969629
 10
105.4262188601445
 20
144.5002727313966
 10
105.2665991757677
 20
144.6004659594757
 10
105.0908901953276
 20
144.6862897981898
 10
104.8978632101477
 20
144.7566213226374
 10
104.6874211664021
 20
144.8083410783601
 10
104.4605780077461
 20
144.8466867488431
 10
104.2172807257639
 20
144.8715405819472
 10
104.0492148063661
 20
144.8736589063113
 10
103.9627505289268
 20
144.8747487131335
 72
     1
 10
103.9627498892902
 20
144.8747486783858
 11
100.8498885789134
 21
144.8747486783858
 72
     1
 10
100.8498885789134
 20
144.8747486783858
 11
100.8498885789134
 21
138.8563880844133
 97
        7
330
1A4
330
19E
330
19F
330
1A0
330
1A1
330
1A2
330
1A3
 92
       20
 93
        5
 72
     1
 10
102.9331676025608
 20
143.5630546009217
 11
103.2936424187346
 21
143.5630546009217
 72
     4
 94
        3
 73
     0
 74
     0
 95
       19
 96
       15
 40
0.0
 40
0.0
 40
0.0
 40
0.0
 40
0.1003902638435993
 40
0.1925195729180326
 40
0.2755702448387128
 40
0.3520087874247463
 40
0.4215677587408871
 40
0.4846638681150113
 40
0.5418253601363838
 40
0.5955635530455394
 40
0.6966159804430421
 40
0.7949872210630505
 40
0.8950134211006255
 40
1.0
 40
1.0
 40
1.0
 40
1.0
 10
103.2936419211544
 20
143.5630547216805
 10
103.3314352372397
 20
143.5627422115363
 10
103.4039119176798
 20
143.5621429072095
 10
103.5073728413715
 20
143.553527516541
 10
103.6011597397804
 20
143.5402633301194
 10
103.6857770246925
 20
143.5230405892887
 10
103.7606971582271
 20
143.498621181
 10
103.8266695272213
 20
143.4706257521664
 10
103.8818403326432
 20
143.4347765076892
 10
103.9422083319721
 20
143.3823204809277
 10
104.0015004129071
 20
143.3065662453417
 10
104.0528625138698
 20
143.2057712179462
 10
104.0860847808393
 20
143.0953352627838
 10
104.0890339712755
 20
143.0179612479772
 10
104.0905442450059
 20
142.978338190564
 72
     4
 94
        3
 73
     0
 74
     0
 95
       19
 96
       15
 40
0.0
 40
0.0
 40
0.0
 40
0.0
 40
0.1016542875529896
 40
0.1982547528125326
 40
0.2935663202735639
 40
0.3947420625483591
 40
0.4488971586230309
 40
0.5074418801939802
 40
0.5721350389728557
 40
0.6430102070030965
 40
0.7211485331588161
 40
0.8056711426952747
 40
0.8988397323602249
 40
1.0
 40
1.0
 40
1.0
 40
1.0
 10
104.0905442450059
 20
142.978338190564
 10
104.0882788025772
 20
142.9382897072979
 10
104.0838605459593
 20
142.8601837823872
 10
104.0476945838677
 20
142.7489829434767
 10
103.987417091347
 20
142.6499272678487
 10
103.9197886741095
 20
142.5767224295156
 10
103.8509637270604
 20
142.5280133965344
 10
103.7901904287863
 20
142.4933492355881
 10
103.7185125955828
 20
142.4662154928822
 10
103.6370338981336
 20
142.4452679574076
 10
103.5469305292776
 20
142.4271445122057
 10
103.4471055628014
 20
142.413725834992
 10
103.3375402311886
 20
142.4070282037255
 10
103.2610985231522
 20
142.406140023498
 10
103.2213058554493
 20
142.4056776703984
 72
     1
 10
103.2213056886968
 20
142.4056775126802
 11
102.9331676025608
 21
142.4056775126802
 72
     1
 10
102.9331676025608
 20
142.4056775126802
 11
102.9331676025608
 21
143.5630546009217
 97
        5
330
132
330
12E
330
12F
330
130
330
131
 92
        5
 93
       18
 72
     4
 94
        3
 73
     0
 74
     0
 95
       27
 96
       23
 40
0.0
 40
0.0
 40
0.0
 40
0.0
 40
0.0647284133505265
 40
0.1261017510394371
 40
0.18423208750284
 40
0.2391521244064193
 40
0.2910680626904144
 40
0.3399895842249456
 40
0.3862386298347363
 40
0.4299269790685661
 40
0.4714464577846027
 40
0.5115932477134619
 40
0.5505421518153308
 40
0.588281560555928
 40
0.625201098243942
 40
0.6615218404514983
 40
0.6972156842495244
 40
0.7327646847748711
 40
0.801784714252232
 40
0.8683634957110068
 40
0.9337363474885754
 40
1.0
 40
1.0
 40
1.0
 40
1.0
 10
116.4744786937238
 20
144.9519071832189
 10
116.3985168546823
 20
144.9512045229069
 10
116.2505305157704
 20
144.9498356233594
 10
116.0344747065896
 20
144.9394693670293
 10
115.8307293320991
 20
144.9194344162867
 10
115.6385364325084
 20
144.8954341295079
 10
115.4589689763825
 20
144.8608328501378
 10
115.2906579124037
 20
144.8221500233356
 10
115.1348948132949
 20
144.7737254722335
 10
114.9908744665762
 20
144.7181239304116
 10
114.8573439971537
 20
144.6561652277875
 10
114.7327490133175
 20
144.5887606580876
 10
114.6170671458558
 20
144.5149761027752
 10
114.5090477645916
 20
144.4366601672567
 10
114.4098141311564
 20
144.3520657454936
 10
114.3194973728606
 20
144.2614383719654
 10
114.2367285449937
 20
144.1659344769805
 10
114.1403399711951
 20
144.0323290047601
 10
114.0398029309265
 20
143.8575190685432
 10
113.9538848402103
 20
143.6372214415451
 10
113.8987645856104
 20
143.4098298696131
 10
113.8927151382336
 20
143.2551338198964
 10
113.8896699458606
 20
143.1772623712531
 72
     4
 94
        3
 73
     0
 74
     0
 95
       15
 96
       11
 40
0.0
 40
0.0
 40
0.0
 40
0.0
 40
0.1305681120102591
 40
0.2570065389379602
 40
0.3807024457759877
 40
0.5014597251269455
 40
0.6221466438358174
 40
0.7451342119796661
 40
0.8702024280274633
 40
1.0
 40
1.0
 40
1.0
 40
1.0
 10
113.8896699458606
 20
143.1772623712531
 10
113.8912235224799
 20
143.1188930816031
 10
113.8942815382831
 20
143.0040006405447
 10
113.9204970122911
 20
142.835508223102
 10
113.9619427684544
 20
142.6747076516303
 10
114.0222984493298
 20
142.522777531535
 10
114.0969413787238
 20
142.3776487549086
 10
114.190816134065
 20
142.2418771366297
 10
114.299337581255
 20
142.1119459619895
 10
114.3841665140095
 20
142.0357724188066
 10
114.4273680342687
 20
141.9969788991645
 72
     4
 94
        3
 73
     0
 74
     0
 95
       15
 96
       11
 40
0.0
 40
0.0
 40
0.0
 40
0.0
 40
0.0944246966778136
 40
0.1967374843120933
 40
0.3073213469984759
 40
0.4267907666744668
 40
0.5550380446824987
 40
0.6932343815193582
 40
0.8414690372153522
 40
1.0
 40
1.0
 40
1.0
 40
1.0
 10
114.4273680342687
 20
141.9969788991645
 10
114.4737368294894
 20
141.9595244471381
 10
114.5703479963055
 20
141.8814866569496
 10
114.7344794139913
 20
141.7775797898124
 10
114.919540003864
 20
141.6787625335765
 10
115.1260774651823
 20
141.5865128248713
 10
115.3537337711458
 20
141.5000037000243
 10
115.6022729460227
 20
141.418158062695
 10
115.8725975273468
 20
141.3421328469346
 10
116.0611636307905
 20
141.2985515011686
 10
116.1586112068115
 20
141.2760294443034
 72
     4
 94
        3
 73
     0
 74
     0
 95
       15
 96
       11
 40
0.0
 40
0.0
 40
0.0
 40
0.0
 40
0.1831658426329676
 40
0.34897228102254
 40
0.4978925306641087
 40
0.6293798317409396
 40
0.7456753687138866
 40
0.8460788534555816
 40
0.9300834039098171
 40
1.0
 40
1.0
 40
1.0
 40
1.0
 10
116.1586112068115
 20
141.2760294443034
 10
116.2149253087588
 20
141.2634046458167
 10
116.3222163862206
 20
141.2393515545744
 10
116.4744737460413
 20
141.2013837656246
 10
116.6092086529134
 20
141.1610986766095
 10
116.7282707167066
 20
141.1230832756444
 10
116.831010584933
 20
141.0841253168147
 10
116.9161431996156
 20
141.0426502634376
 10
116.9870529169349
 20
141.0045165331769
 10
117.0242258892262
 20
140.9731872560864
 10
117.041111208414
 20
140.9589563562959
 72
     4
 94
        3
 73
     0
 74
     0
 95
       11
 96
        7
 40
0.0
 40
0.0
 40
0.0
 40
0.0
 40
0.2715239469865905
 40
0.5232115228785271
 40
0.7609838253920382
 40
1.0
 40
1.0
 40
1.0
 40
1.0
 10
117.041111208414
 20
140.9589563562959
 10
117.066183739743
 20
140.9332521532892
 10
117.1144971111589
 20
140.8837215857326
 10
117.1692046034727
 20
140.7984125170246
 10
117.2006855103774
 20
140.7062897905304
 10
117.2052140050874
 20
140.643313522772
 10
117.2074841595358
 20
140.6117432409113
 72
     4
 94
        3
 73
     0
 74
     0
 95
       15
 96
       11
 40
0.0
 40
0.0
 40
0.0
 40
0.0
 40
0.1018549637579167
 40
0.2041803227695457
 40
0.3113806720473489
 40
0.4275296068781671
 40
0.5518505446029884
 40
0.6852973389901478
 40
0.8330205163443184
 40
1.0
 40
1.0
 40
1.0
 40
1.0
 10
117.2074841595358
 20
140.6117432409113
 10
117.205492945644
 20
140.578502725658
 10
117.2015013218671
 20
140.5118681809777
 10
117.1655276088335
 20
140.4155328236048
 10
117.1069572208711
 20
140.3265451436552
 10
117.0285323475108
 20
140.2440339375589
 10
116.9273501429959
 20
140.1745154715376
 10
116.8038624485496
 20
140.1256764841932
 10
116.6604099178056
 20
140.0951375018784
 10
116.5578374837124
 20
140.0923843662854
 10
116.5034131200059
 20
140.0909235678343
 72
     4
 94
        3
 73
     0
 74
     0
 95
       15
 96
       11
 40
0.0
 40
0.0
 40
0.0
 40
0.0
 40
0.1308927995751797
 40
0.2553957141859174
 40
0.3780369711492712
 40
0.497995846592184
 40
0.6194185240480046
 40
0.7412278822662628
 40
0.8675147133239209
 40
1.0
 40
1.0
 40
1.0
 40
1.0
 10
116.5034131200059
 20
140.0909235678343
 10
116.4703798956861
 20
140.0916562659785
 10
116.4059260529659
 20
140.093085893631
 10
116.311876044794
 20
140.109990780686
 10
116.2223586433871
 20
140.1342776066664
 10
116.1383101634835
 20
140.1717554666368
 10
116.0585565617613
 20
140.217065597361
 10
115.9841828587301
 20
140.2735282385635
 10
115.9147493277446
 20
140.3401503525622
 10
115.8743021440852
 20
140.3914018789031
 10
115.8535941297548
 20
140.4176414646025
 72
     4
 94
        3
 73
     0
 74
     0
 95
       15
 96
       11
 40
0.0
 40
0.0
 40
0.0
 40
0.0
 40
0.0854526924151399
 40
0.1800875319119646
 40
0.2863485934019602
 40
0.4041224020726429
 40
0.5338901992817344
 40
0.677665407472809
 40
0.8324134822639165
 40
1.0
 40
1.0
 40
1.0
 40
1.0
 10
115.8535941297548
 20
140.4176414646025
 10
115.8418541070891
 20
140.4342298796351
 10
115.8171125612502
 20
140.4691891844519
 10
115.7881055793193
 20
140.530920246348
 10
115.7587836510238
 20
140.6006406155175
 10
115.732686343458
 20
140.6805735819365
 10
115.7084909534558
 20
140.7702911186561
 10
115.6873702995988
 20
140.8697808794838
 10
115.6678537443166
 20
140.9787203282184
 10
115.6575933022978
 20
141.0545557319428
 10
115.6522587468755
 20
141.0939836789454
 72
     1
 10
115.652259009942
 20
141.0939834352161
 11
113.6581947129706
 21
140.9794513827267
 72
     4
 94
        3
 73
     0
 74
     0
 95
       23
 96
       19
 40
0.0
 40
0.0
 40
0.0
 40
0.0
 40
0.0606897958315776
 40
0.119003602874892
 40
0.1753464194432917
 40
0.229850682245433
 40
0.2829973809001484
 40
0.3352163057398765
 40
0.3872779957824937
 40
0.4394875340241141
 40
0.4928475850500472
 40
0.5493301995320312
 40
0.6099604995101007
 40
0.6757566427679425
 40
0.7468635645056556
 40
0.8244604288400134
 40
0.9089213898044444
 40
1.0
 40
1.0
 40
1.0
 40
1.0
 10
113.6581945356042
 20
140.9794515749123
 10
113.666223494603
 20
140.8981128596467
 10
113.6819670810677
 20
140.7386198174113
 10
113.7257974023094
 20
140.506360170327
 10
113.7853918258528
 20
140.2862595088119
 10
113.8635831462931
 20
140.0795132098173
 10
113.9544831443927
 20
139.8841404817028
 10
114.0638349787164
 20
139.7020831910128
 10
114.1901850729222
 20
139.5332240577995
 10
114.3308590268292
 20
139.37379360827
 10
114.4974377748593
 20
139.2315826128569
 10
114.6928288314298
 20
139.1098710175619
 10
114.9166694282463
 20
139.0059070937625
 10
115.16976656553
 20
138.9226589721392
 10
115.4515785079821
 20
138.8582199140352
 10
115.7622860857736
 20
138.8118459139288
 10
116.1022644620937
 20
138.7846100253875
 10
116.3385963903524
 20
138.7810675748824
 10
116.4612170816779
 20
138.7792295763813
 72
     4
 94
        3
 73
     0
 74
     0
 95
       31
 96
       27
 40
0.0
 40
0.0
 40
0.0
 40
0.0
 40
0.0570531610698313
 40
0.1117125263343494
 40
0.1640394683206537
 40
0.2141650401898245
 40
0.2624611423758521
 40
0.3088860495017381
 40
0.3534440519120132
 40
0.3966850169511454
 40
0.4383791975264287
 40
0.4794049687164639
 40
0.5190932032189144
 40
0.5579988090662805
 40
0.5964433677358869
 40
0.6343585440481053
 40
0.6721954719218475
 40
0.7101721074282267
 40
0.7478094754498699
 40
0.7847589642964122
 40
0.8207789415745779
 40
0.8567624811825825
 40
0.8922237435111919
 40
0.928051670580161
 40
0.9638185214907669
 40
1.0
 40
1.0
 40
1.0
 40
1.0
 10
116.4612170816779
 20
138.7792295763813
 10
116.534785429372
 20
138.7796549124924
 10
116.6788353965436
 20
138.7804877387657
 10
116.8899087709743
 20
138.7948888085459
 10
117.0915749581284
 20
138.8143889345673
 10
117.2837030200825
 20
138.8440479624511
 10
117.4672511652301
 20
138.8789557795704
 10
117.6407876040302
 20
138.925524547457
 10
117.8057163364568
 20
138.978164315438
 10
117.9610140233298
 20
139.0397381488791
 10
118.1081928119017
 20
139.1086555259726
 10
118.2459454065498
 20
139.185814318998
 10
118.3763246644331
 20
139.268505871189
 10
118.4953290748758
 20
139.3614892345033
 10
118.6082205069351
 20
139.4582767595745
 10
118.7109088155061
 20
139.5640370421723
 10
118.8052893431664
 20
139.6763875595081
 10
118.8905873099943
 20
139.7953898351553
 10
118.9661019128336
 20
139.919428887957
 10
119.0326582265869
 20
140.0456617049975
 10
119.0885590336496
 20
140.1746621057856
 10
119.1343838123174
 20
140.305540811539
 10
119.1696061041732
 20
140.4394368631569
 10
119.194475096403
 20
140.5752660640475
 10
119.2112152114582
 20
140.7134015613314
 10
119.2128049378719
 20
140.8061979031907
 10
119.213604381758
 20
140.8528634599283
 72
     4
 94
        3
 73
     0
 74
     0
 95
       27
 96
       23
 40
0.0
 40
0.0
 40
0.0
 40
0.0
 40
0.0611300843168978
 40
0.1211241928153811
 40
0.1807853859427782
 40
0.2413933803778102
 40
0.2724361462068648
 40
0.3040093261596784
 40
0.3362639087387902
 40
0.369637565326157
 40
0.4043027550909171
 40
0.4399755490988773
 40
0.4772354113840835
 40
0.516203064809037
 40
0.5585395894502744
 40
0.6057726571547384
 40
0.658179207610156
 40
0.7159472997364102
 40
0.7788269864549019
 40
0.8470775206946723
 40
0.9208165215346077
 40
1.0
 40
1.0
 40
1.0
 40
1.0
 10
119.213604381758
 20
140.8528634599283
 10
119.2105754759904
 20
140.9310541922464
 10
119.2045739503862
 20
141.0859826443089
 10
119.1570229622121
 20
141.3132055868374
 10
119.080744462464
 20
141.5312235184796
 10
118.9912597361618
 20
141.7036007006975
 10
118.9032973458367
 20
141.834374689336
 10
118.8286910785541
 20
141.9301595807259
 10
118.7434459281769
 20
142.0207549188856
 10
118.6491155643679
 20
142.1077017758926
 10
118.5455690482896
 20
142.1906485798328
 10
118.4326400736042
 20
142.269314365363
 10
118.3105439042071
 20
142.3439396572024
 10
118.1773193939634
 20
142.4163691363915
 10
118.0280668656639
 20
142.4852569371438
 10
117.860147207413
 20
142.5542369083817
 10
117.6702945115801
 20
142.6210581925511
 10
117.4595000134662
 20
142.6881439213507
 10
117.2277428721579
 20
142.7560090251172
 10
116.9741835414236
 20
142.8215355484311
 10
116.6994662256588
 20
142.8883581570145
 10
116.5083410986603
 20
142.9293722232366
 10
116.4093762345892
 20
142.950609365377
 72
     4
 94
        3
 73
     0
 74
     0
 95
       11
 96
        7
 40
0.0
 40
0.0
 40
0.0
 40
0.0
 40
0.3408919075249328
 40
0.6190230376739658
 40
0.8361273786762213
 40
1.0
 40
1.0
 40
1.0
 40
1.0
 10
116.4093762345892
 20
142.950609365377
 10
116.3471708337884
 20
142.963990746682
 10
116.2342125167575
 20
142.9882898958281
 10
116.0858847950412
 20
143.0356200054063
 10
115.9705043719705
 20
143.0811787221134
 10
115.914046731958
 20
143.1247597079258
 10
115.8897621626074
 20
143.1435055405908
 72
     4
 94
        3
 73
     0
 74
     0
 95
       11
 96
        7
 40
0.0
 40
0.0
 40
0.0
 40
0.0
 40
0.2239233314393195
 40
0.4610947605636436
 40
0.7114486559869038
 40
1.0
 40
1.0
 40
1.0
 40
1.0
 10
115.8897621626074
 20
143.1435055405908
 10
115.8785234334006
 20
143.1550099930658
 10
115.8553810519464
 20
143.1786995421865
 10
115.8351824627085
 20
143.2260769579588
 10
115.8209447698417
 20
143.2796907133033
 10
115.8194383143236
 20
143.3181957738859
 10
115.8186316979973
 20
143.3388129179946
 72
     4
 94
        3
 73
     0
 74
     0
 95
       15
 96
       11
 40
0.0
 40
0.0
 40
0.0
 40
0.0
 40
0.1257141932744346
 40
0.2412351009046743
 40
0.3517703820733585
 40
0.461913924451022
 40
0.5780429865513379
 40
0.7033106822190713
 40
0.8422827129542179
 40
1.0
 40
1.0
 40
1.0
 40
1.0
 10
115.8186316979973
 20
143.3388129179946
 10
115.8198713722446
 20
143.3671033199647
 10
115.8222502042152
 20
143.4213902528571
 10
115.844590470854
 20
143.4979790954593
 10
115.881084986894
 20
143.5648431699058
 10
115.9335026006043
 20
143.6204745315909
 10
116.0000042564057
 20
143.6642513361034
 10
116.0801050804292
 20
143.6952442012697
 10
116.1733465436008
 20
143.714892557492
 10
116.2400797565449
 20
143.7165112042574
 10
116.2755545130347
 20
143.7173716618514
 72
     4
 94
        3
 73
     0
 74
     0
 95
       19
 96
       15
 40
0.0
 40
0.0
 40
0.0
 40
0.0
 40
0.1299875990995494
 40
0.2466520966174195
 40
0.3549738766930558
 40
0.4572267625875653
 40
0.5096298413073603
 40
0.5646269733758604
 40
0.6241652363874526
 40
0.688271518392445
 40
0.7570918053694545
 40
0.8323721048746782
 40
0.9127825867580774
 40
1.0
 40
1.0
 40
1.0
 40
1.0
 10
116.2755545130347
 20
143.7173716618514
 10
116.3291300248119
 20
143.7152669319603
 10
116.4307898169667
 20
143.7112731968345
 10
116.5751180599755
 20
143.6820199319987
 10
116.6997564183789
 20
143.6282696448421
 10
116.7898106696662
 20
143.5664891177839
 10
116.851453003629
 20
143.505515810677
 10
116.8922466955509
 20
143.4498853111594
 10
116.9309895495098
 20
143.3872108178237
 10
116.9659595925964
 20
143.3158540504122
 10
116.996042929506
 20
143.2353631352162
 10
117.0215366782699
 20
143.1463963419955
 10
117.0468629146838
 20
143.049463130746
 10
117.0581466566044
 20
142.9812687495306
 10
117.0640176292206
 20
142.9457869609967
 72
     1
 10
117.0640175291179
 20
142.9457869749943
 11
119.0592873499822
 21
143.0567021248427
 72
     4
 94
        3
 73
     0
 74
     0
 95
       23
 96
       19
 40
0.0
 40
0.0
 40
0.0
 40
0.0
 40
0.067838982572999
 40
0.1319054495582751
 40
0.1924306383525001
 40
0.2504924879005417
 40
0.3059655498776287
 40
0.3602677391395126
 40
0.4138356238135499
 40
0.4674925744241435
 40
0.5224579818692703
 40
0.5800213454699099
 40
0.6402814286165774
 40
0.7037275873315061
 40
0.7715036056650141
 40
0.8432261454024172
 40
0.9191936213025378
 40
1.0
 40
1.0
 40
1.0
 40
1.0
 10
119.0592874415871
 20
143.0567022617446
 10
119.0481050251618
 20
143.1372912630598
 10
119.0263620448018
 20
143.2939877234836
 10
118.973538131554
 20
143.5190175099796
 10
118.9028912371413
 20
143.7265459208123
 10
118.8186869826579
 20
143.9179848591974
 10
118.7143758746938
 20
144.0905676094454
 10
118.5966620694666
 20
144.2476376631598
 10
118.4600893219425
 20
144.3857141097269
 10
118.3079733630314
 20
144.507542478762
 10
118.1382649705976
 20
144.6127092188506
 10
117.9521328588985
 20
144.7043286113038
 10
117.748572226146
 20
144.7813519427546
 10
117.5274122720457
 20
144.8437770920265
 10
117.2888959753668
 20
144.8928757461324
 10
117.0327035088768
 20
144.9273038691742
 10
116.7593357051359
 20
144.9477596043116
 10
116.5713649675503
 20
144.9504964983854
 10
116.4744786937238
 20
144.9519071832189
 97
       18
330
1B7
330
1AC
330
1AD
330
1AE
330
1AF
330
1B0
330
1B1
330
1B2
330
1B3
330
1B4
330
1B5
330
1A5
330
1A6
330
1A7
330
1A8
330
1A9
330
1AA
330
1AB
 92
        5
 93
       12
 72
     4
 94
        3
 73
     0
 74
     0
 95
       23
 96
       19
 40
0.0
 40
0.0
 40
0.0
 40
0.0
 40
0.0549461450924741
 40
0.1115389485313251
 40
0.1705970661878331
 40
0.2328718818020828
 40
0.2954249843444834
 40
0.3555721199862847
 40
0.414303687853634
 40
0.4712057438868409
 40
0.5295389181989549
 40
0.5917026503021813
 40
0.6579685456550282
 40
0.7288751838972642
 40
0.8010461841203683
 40
0.8702351262607416
 40
0.9365454476072407
 40
1.0
 40
1.0
 40
1.0
 40
1.0
 10
107.1141917914803
 20
140.3067261638546
 10
107.1344136699774
 20
140.2462466682694
 10
107.1754634481029
 20
140.1234751920551
 10
107.266212213568
 20
139.9470676625284
 10
107.3762941858776
 20
139.7724422456268
 10
107.5073916621442
 20
139.6039164952821
 10
107.65376731499
 20
139.4468981685648
 10
107.8101211213097
 20
139.3058407458918
 10
107.9737316367876
 20
139.1838639051593
 10
108.1471291022711
 20
139.0801909656783
 10
108.3346129096731
 20
138.9946942482439
 10
108.5404867100673
 20
138.9266033581024
 10
108.7657609769716
 20
138.8740439284304
 10
109.0057878388376
 20
138.8372958569163
 10
109.2505926522997
 20
138.8120665020019
 10
109.4906709339353
 20
138.7945657203168
 10
109.7209516961711
 20
138.7810615164839
 10
109.8713828663695
 20
138.7798311977687
 10
109.9449431627409
 20
138.7792295763813
 72
     4
 94
        3
 73
     0
 74
     0
 95
       15
 96
       11
 40
0.0
 40
0.0
 40
0.0
 40
0.0
 40
0.1416993418061906
 40
0.2789789546521431
 40
0.4102860001343345
 40
0.5375744389970221
 40
0.6592578734489851
 40
0.7766778839124822
 40
0.8905788230183763
 40
1.0
 40
1.0
 40
1.0
 40
1.0
 10
109.9449431627409
 20
138.7792295763813
 10
110.0076396394823
 20
138.7801382855981
 10
110.131077033889
 20
138.7819273605802
 10
110.3125234476509
 20
138.789635907429
 10
110.4870208022386
 20
138.8057480308022
 10
110.653942548605
 20
138.8271959678273
 10
110.8138957947701
 20
138.8543191461219
 10
110.9658960073433
 20
138.8904456701011
 10
111.1119393753168
 20
138.9284310438042
 10
111.205008200079
 20
138.961802660229
 10
111.2506091487185
 20
138.9781537570705
 72
     4
 94
        3
 73
     0
 74
     0
 95
       19
 96
       15
 40
0.0
 40
0.0
 40
0.0
 40
0.0
 40
0.0788385060783452
 40
0.1586308550665527
 40
0.2404026082002106
 40
0.3251074604883362
 40
0.4104480348390179
 40
0.4945361679842638
 40
0.5771714292885385
 40
0.6606822459810093
 40
0.7446760904171033
 40
0.8285457092632251
 40
0.9137571693389039
 40
1.0
 40
1.0
 40
1.0
 40
1.0
 10
111.2506091487185
 20
138.9781537570705
 10
111.3225536541419
 20
139.0073884776607
 10
111.4673130994986
 20
139.0662116207612
 10
111.6717101548133
 20
139.1868146528431
 10
111.8668460034379
 20
139.3310602843889
 10
112.0496197370005
 20
139.4989827662107
 10
112.2168945572073
 20
139.6854695630076
 10
112.3603219479313
 20
139.8884385578713
 10
112.4803006583411
 20
140.1040414108893
 10
112.5735707697841
 20
140.3323667659414
 10
112.6440328477212
 20
140.56980970844
 10
112.6944955044913
 20
140.8138313881699
 10
112.7274520241931
 20
141.0633423404838
 10
112.7306728129779
 20
141.2321222734573
 10
112.7322928945785
 20
141.3170198815363
 72
     1
 10
112.7322927775648
 20
141.3170199208018
 11
112.7322927775648
 21
144.8747486783858
 72
     1
 10
112.7322927775648
 20
144.8747486783858
 11
110.6490144159844
 21
144.8747486783858
 72
     1
 10
110.6490144159844
 20
144.8747486783858
 11
110.6490144159844
 21
141.25432870597
 72
     4
 94
        3
 73
     0
 74
     0
 95
       23
 96
       19
 40
0.0
 40
0.0
 40
0.0
 40
0.0
 40
0.0766824015697892
 40
0.1486700976527492
 40
0.2170705169604035
 40
0.2824432988107611
 40
0.3448461758212983
 40
0.4043574465276339
 40
0.4622985407702518
 40
0.5203130401448097
 40
0.5774962991603201
 40
0.6334190453332518
 40
0.6893164182080683
 40
0.746611206060957
 40
0.8060031677645589
 40
0.8681212286968663
 40
0.9325761455595515
 40
1.0
 40
1.0
 40
1.0
 40
1.0
 10
110.6490142022708
 20
141.2543286245918
 10
110.6484003163646
 20
141.21772539653
 10
110.6472101283193
 20
141.1467598897257
 10
110.6357299322853
 20
141.0436931775878
 10
110.61931151882
 20
140.9468487542073
 10
110.595797470921
 20
140.856035608494
 10
110.5627938680143
 20
140.7727748688146
 10
110.5238981806263
 20
140.6961897829542
 10
110.4793612108913
 20
140.6250470956005
 10
110.4260801309791
 20
140.5616273850546
 10
110.3672590491971
 20
140.5047494201717
 10
110.3025727415299
 20
140.456291019003
 10
110.2332364371345
 20
140.414709441171
 10
110.1579289909211
 20
140.380920616036
 10
110.0766685941325
 20
140.3544804269697
 10
109.989923436664
 20
140.335131626194
 10
109.8977932265691
 20
140.3244379154819
 10
109.8348581756443
 20
140.3230887483201
 10
109.8026822335209
 20
140.3223989780907
 72
     4
 94
        3
 73
     0
 74
     0
 95
       19
 96
       15
 40
0.0
 40
0.0
 40
0.0
 40
0.0
 40
0.1207540903524197
 40
0.2332856475289623
 40
0.342535571836598
 40
0.4545417831612398
 40
0.5119990509970276
 40
0.5719387555259385
 40
0.6335904615762418
 40
0.6988565793939037
 40
0.766791018755764
 40
0.8398333602284003
 40
0.9174208215258732
 40
1.0
 40
1.0
 40
1.0
 40
1.0
 10
109.8026822335208
 20
140.3223989780907
 10
109.7473183913378
 20
140.3249373993941
 10
109.6403606084943
 20
140.3298413927556
 10
109.4883780592259
 20
140.3745914715556
 10
109.3537454284975
 20
140.4488755305748
 10
109.2566112552576
 20
140.533335394305
 10
109.1905362556278
 20
140.6152748435515
 10
109.1478584038866
 20
140.6854164761004
 10
109.1095164353278
 20
140.762026415058
 10
109.0800399203407
 20
140.8464245824374
 10
109.0571546816729
 20
140.9380848282561
 10
109.0402789990692
 20
141.0367913707526
 10
109.0309506758255
 20
141.1432342343489
 10
109.0294566332564
 20
141.2165356626135
 10
109.028686330476
 20
141.2543286245918
 72
     1
 10
109.0286856980795
 20
141.25432870597
 11
109.0286856980795
 21
144.8747486783858
 72
     1
 10
109.0286856980795
 20
144.8747486783858
 11
106.9454079984951
 21
144.8747486783858
 72
     1
 10
106.9454079984951
 20
144.8747486783858
 11
106.9454079984951
 21
141.3170199208018
 72
     4
 94
        3
 73
     0
 74
     0
 95
       11
 96
        7
 40
0.0
 40
0.0
 40
0.0
 40
0.0
 40
0.2243415189027175
 40
0.4644590911360978
 40
0.7230880020868903
 40
1.0
 40
1.0
 40
1.0
 40
1.0
 10
106.9454076381683
 20
141.3170198815363
 10
106.9477326531444
 20
141.2401685377076
 10
106.952546181857
 20
141.0810615410096
 10
106.9859002730198
 20
140.8352541795612
 10
107.0388378653506
 20
140.5747033690389
 10
107.088508572107
 20
140.3980620464193
 10
107.1141917914803
 20
140.3067261638546
 97
       12
330
1B8
330
144
330
145
330
146
330
147
330
148
330
149
330
13F
330
140
330
141
330
142
330
143
 75
     0
 76
     0
 52
45.0
 41
0.0265
 77
     0
 78
     1
 53
45.0
 43
0.0
 44
0.0
 45
-0.0187383297014435
 46
0.0187383297014435
 79
     0
 47
0.0
 98
        6
 10
0.0
 20
0.0
 10
121.1518604349398
 20
142.3960867678413
 10
105.5224772068248
 20
142.847624242009
 10
105.5224772068248
 20
142.847624242009
 10
116.2111554369101
 20
142.3101614635277
 10
107.9623262228084
 20
141.0642445509811
  0
ENDSEC
  0
SECTION
  2
OBJECTS
  0
DICTIONARY
  5
C
330
0
100
AcDbDictionary
281
     1
  3
ACAD_COLOR
350
6C
  3
ACAD_GROUP
350
D
  3
ACAD_LAYOUT
350
1A
  3
ACAD_MATERIAL
350
6B
  3
ACAD_MLEADERSTYLE
350
125
  3
ACAD_MLINESTYLE
350
17
  3
ACAD_PLOTSETTINGS
350
19
  3
ACAD_PLOTSTYLENAME
350
E
  3
ACAD_SCALELIST
350
3B
  3
ACAD_TABLESTYLE
350
92
  3
ACAD_VISUALSTYLE
350
2A
  3
AcDbVariableDictionary
350
59
  0
DICTIONARY
  5
6C
102
{ACAD_REACTORS
330
C
102
}
330
C
100
AcDbDictionary
281
     1
  0
DICTIONARY
  5
D
102
{ACAD_REACTORS
330
C
102
}
330
C
100
AcDbDictionary
281
     1
  0
DICTIONARY
  5
1A
102
{ACAD_REACTORS
330
C
102
}
330
C
100
AcDbDictionary
281
     1
  3
Layout1
350
74
  3
Layout2
350
26
  3
Model
350
22
  0
DICTIONARY
  5
6B
102
{ACAD_REACTORS
330
C
102
}
330
C
100
AcDbDictionary
281
     1
  0
DICTIONARY
  5
125
102
{ACAD_REACTORS
330
C
102
}
330
C
100
AcDbDictionary
281
     1
  0
DICTIONARY
  5
17
102
{ACAD_REACTORS
330
C
102
}
330
C
100
AcDbDictionary
281
     1
  3
Standard
350
18
  0
DICTIONARY
  5
19
102
{ACAD_REACTORS
330
C
102
}
330
C
100
AcDbDictionary
281
     1
  0
ACDBDICTIONARYWDFLT
  5
E
102
{ACAD_REACTORS
330
C
102
}
330
C
100
AcDbDictionary
281
     1
  3
Normal
350
F
100
AcDbDictionaryWithDefault
340
F
  0
DICTIONARY
  5
3B
102
{ACAD_REACTORS
330
C
102
}
330
C
100
AcDbDictionary
281
     1
  3
A0
350
3C
  3
A1
350
3D
  3
A2
350
3E
  3
A3
350
3F
  3
A4
350
40
  3
A5
350
41
  3
A6
350
42
  3
A7
350
43
  3
A8
350
44
  3
A9
350
45
  3
B0
350
46
  3
B1
350
47
  3
B2
350
48
  3
B3
350
49
  3
B4
350
4A
  3
B5
350
4B
  3
B6
350
4C
  3
B7
350
4D
  3
B8
350
4E
  3
B9
350
4F
  3
C0
350
50
  3
C1
350
51
  3
C2
350
52
  3
C3
350
53
  3
C4
350
54
  3
C5
350
55
  3
C6
350
56
  3
C7
350
57
  3
C8
350
58
  3
C9
350
1C9
  3
D0
350
1CA
  3
D1
350
5B
  3
D2
350
5C
  0
DICTIONARY
  5
92
102
{ACAD_REACTORS
330
C
102
}
330
C
100
AcDbDictionary
281
     1
  0
DICTIONARY
  5
2A
102
{ACAD_REACTORS
330
C
102
}
330
C
100
AcDbDictionary
281
     1
  3
2DWIREFRAME
350
2F
  3
3D HIDDEN
350
31
  3
3DWIREFRAME
350
30
  3
BASIC
350
32
  3
BRIGHTEN
350
36
  3
COLORCHANGE
350
3A
  3
CONCEPTUAL
350
34
  3
DIM
350
35
  3
FACEPATTERN
350
39
  3
FLAT
350
2B
  3
FLATWITHEDGES
350
2C
  3
GOURAUD
350
2D
  3
GOURAUDWITHEDGES
350
2E
  3
LINEPATTERN
350
38
  3
REALISTIC
350
33
  3
THICKEN
350
37
  0
DICTIONARY
  5
59
102
{ACAD_REACTORS
330
C
102
}
330
C
100
AcDbDictionary
281
     1
  3
CANNOSCALE
350
123
  3
PSOLHEIGHT
350
1CF
  3
PSOLWIDTH
350
126
  0
LAYOUT
  5
74
102
{ACAD_REACTORS
330
1A
102
}
330
1A
100
AcDbPlotSettings
  1

  2
none_device
  4

  6

 40
0.0
 41
0.0
 42
0.0
 43
0.0
 44
0.0
 45
0.0
 46
0.0
 47
0.0
 48
0.0
 49
0.0
140
0.0
141
0.0
142
1.0
143
1.0
 70
   688
 72
     0
 73
     0
 74
     5
  7

 75
    16
 76
     0
 77
     2
 78
   300
147
1.0
148
0.0
149
0.0
100
AcDbLayout
  1
Layout1
 70
     1
 71
     1
 10
0.0
 20
0.0
 11
420.0
 21
297.0
 12
0.0
 22
0.0
 32
0.0
 14
1.000000000000000E+20
 24
1.000000000000000E+20
 34
1.000000000000000E+20
 15
-1.000000000000000E+20
 25
-1.000000000000000E+20
 35
-1.000000000000000E+20
146
0.0
 13
0.0
 23
0.0
 33
0.0
 16
1.0
 26
0.0
 36
0.0
 17
0.0
 27
1.0
 37
0.0
 76
     0
330
73
  0
LAYOUT
  5
26
102
{ACAD_REACTORS
330
1A
102
}
330
1A
100
AcDbPlotSettings
  1

  2
none_device
  4

  6

 40
0.0
 41
0.0
 42
0.0
 43
0.0
 44
0.0
 45
0.0
 46
0.0
 47
0.0
 48
0.0
 49
0.0
140
0.0
141
0.0
142
1.0
143
1.0
 70
   688
 72
     0
 73
     0
 74
     5
  7

 75
    16
 76
     0
 77
     2
 78
   300
147
1.0
148
0.0
149
0.0
100
AcDbLayout
  1
Layout2
 70
     1
 71
     2
 10
0.0
 20
0.0
 11
0.0
 21
0.0
 12
0.0
 22
0.0
 32
0.0
 14
0.0
 24
0.0
 34
0.0
 15
0.0
 25
0.0
 35
0.0
146
0.0
 13
0.0
 23
0.0
 33
0.0
 16
1.0
 26
0.0
 36
0.0
 17
0.0
 27
1.0
 37
0.0
 76
     0
330
23
  0
LAYOUT
  5
22
102
{ACAD_REACTORS
330
1A
102
}
330
1A
100
AcDbPlotSettings
  1

  2
none_device
  4

  6

 40
0.0
 41
0.0
 42
0.0
 43
0.0
 44
0.0
 45
0.0
 46
0.0
 47
0.0
 48
0.0
 49
0.0
140
0.0
141
0.0
142
1.0
143
1.0
 70
 11952
 72
     0
 73
     0
 74
     0
  7

 75
     0
 76
     0
 77
     2
 78
   300
147
1.0
148
0.0
149
0.0
100
AcDbLayout
  1
Model
 70
     1
 71
     0
 10
0.0
 20
0.0
 11
279.4
 21
215.9
 12
0.0
 22
0.0
 32
0.0
 14
97.52270379077947
 24
137.0359395674975
 34
0.0
 15
132.6919345648795
 25
145.7197002512582
 35
0.0
146
0.0
 13
0.0
 23
0.0
 33
0.0
 16
1.0
 26
0.0
 36
0.0
 17
0.0
 27
1.0
 37
0.0
 76
     0
330
1F
  0
MLINESTYLE
  5
18
102
{ACAD_REACTORS
330
17
102
}
330
17
100
AcDbMlineStyle
  2
Standard
 70
     0
  3

 62
   256
 51
90.0
 52
90.0
 71
     2
 49
0.5
 62
   256
  6
BYLAYER
 49
-0.5
 62
   256
  6
BYLAYER
  0
ACDBPLACEHOLDER
  5
F
102
{ACAD_REACTORS
330
E
102
}
330
E
  0
SCALE
  5
3C
102
{ACAD_REACTORS
330
3B
102
}
330
3B
100
AcDbScale
 70
     0
300
1:1
140
1.0
141
1.0
290
     1
  0
SCALE
  5
3D
102
{ACAD_REACTORS
330
3B
102
}
330
3B
100
AcDbScale
 70
     0
300
1:2
140
1.0
141
2.0
290
     1
  0
SCALE
  5
3E
102
{ACAD_REACTORS
330
3B
102
}
330
3B
100
AcDbScale
 70
     0
300
1:4
140
1.0
141
4.0
290
     1
  0
SCALE
  5
3F
102
{ACAD_REACTORS
330
3B
102
}
330
3B
100
AcDbScale
 70
     0
300
1:5
140
1.0
141
5.0
290
     1
  0
SCALE
  5
40
102
{ACAD_REACTORS
330
3B
102
}
330
3B
100
AcDbScale
 70
     0
300
1:8
140
1.0
141
8.0
290
     1
  0
SCALE
  5
41
102
{ACAD_REACTORS
330
3B
102
}
330
3B
100
AcDbScale
 70
     0
300
1:10
140
1.0
141
10.0
290
     1
  0
SCALE
  5
42
102
{ACAD_REACTORS
330
3B
102
}
330
3B
100
AcDbScale
 70
     0
300
1:16
140
1.0
141
16.0
290
     1
  0
SCALE
  5
43
102
{ACAD_REACTORS
330
3B
102
}
330
3B
100
AcDbScale
 70
     0
300
1:20
140
1.0
141
20.0
290
     1
  0
SCALE
  5
44
102
{ACAD_REACTORS
330
3B
102
}
330
3B
100
AcDbScale
 70
     0
300
1:30
140
1.0
141
30.0
290
     1
  0
SCALE
  5
45
102
{ACAD_REACTORS
330
3B
102
}
330
3B
100
AcDbScale
 70
     0
300
1:40
140
1.0
141
40.0
290
     1
  0
SCALE
  5
46
102
{ACAD_REACTORS
330
3B
102
}
330
3B
100
AcDbScale
 70
     0
300
1:50
140
1.0
141
50.0
290
     1
  0
SCALE
  5
47
102
{ACAD_REACTORS
330
3B
102
}
330
3B
100
AcDbScale
 70
     0
300
1:100
140
1.0
141
100.0
290
     1
  0
SCALE
  5
48
102
{ACAD_REACTORS
330
3B
102
}
330
3B
100
AcDbScale
 70
     0
300
2:1
140
2.0
141
1.0
290
     1
  0
SCALE
  5
49
102
{ACAD_REACTORS
330
3B
102
}
330
3B
100
AcDbScale
 70
     0
300
4:1
140
4.0
141
1.0
290
     1
  0
SCALE
  5
4A
102
{ACAD_REACTORS
330
3B
102
}
330
3B
100
AcDbScale
 70
     0
300
8:1
140
8.0
141
1.0
290
     1
  0
SCALE
  5
4B
102
{ACAD_REACTORS
330
3B
102
}
330
3B
100
AcDbScale
 70
     0
300
10:1
140
10.0
141
1.0
290
     1
  0
SCALE
  5
4C
102
{ACAD_REACTORS
330
3B
102
}
330
3B
100
AcDbScale
 70
     0
300
100:1
140
100.0
141
1.0
290
     1
  0
SCALE
  5
4D
102
{ACAD_REACTORS
330
3B
102
}
330
3B
100
AcDbScale
 70
     0
300
1/128" = 1'-0"
140
0.0078125
141
12.0
290
     1
  0
SCALE
  5
4E
102
{ACAD_REACTORS
330
3B
102
}
330
3B
100
AcDbScale
 70
     0
300
1/64" = 1'-0"
140
0.015625
141
12.0
290
     1
  0
SCALE
  5
4F
102
{ACAD_REACTORS
330
3B
102
}
330
3B
100
AcDbScale
 70
     0
300
1/32" = 1'-0"
140
0.03125
141
12.0
290
     1
  0
SCALE
  5
50
102
{ACAD_REACTORS
330
3B
102
}
330
3B
100
AcDbScale
 70
     0
300
1/16" = 1'-0"
140
0.0625
141
12.0
290
     1
  0
SCALE
  5
51
102
{ACAD_REACTORS
330
3B
102
}
330
3B
100
AcDbScale
 70
     0
300
3/32" = 1'-0"
140
0.09375
141
12.0
290
     1
  0
SCALE
  5
52
102
{ACAD_REACTORS
330
3B
102
}
330
3B
100
AcDbScale
 70
     0
300
1/8" = 1'-0"
140
0.125
141
12.0
290
     1
  0
SCALE
  5
53
102
{ACAD_REACTORS
330
3B
102
}
330
3B
100
AcDbScale
 70
     0
300
3/16" = 1'-0"
140
0.1875
141
12.0
290
     1
  0
SCALE
  5
54
102
{ACAD_REACTORS
330
3B
102
}
330
3B
100
AcDbScale
 70
     0
300
1/4" = 1'-0"
140
0.25
141
12.0
290
     1
  0
SCALE
  5
55
102
{ACAD_REACTORS
330
3B
102
}
330
3B
100
AcDbScale
 70
     0
300
3/8" = 1'-0"
140
0.375
141
12.0
290
     1
  0
SCALE
  5
56
102
{ACAD_REACTORS
330
3B
102
}
330
3B
100
AcDbScale
 70
     0
300
1/2" = 1'-0"
140
0.5
141
12.0
290
     1
  0
SCALE
  5
57
102
{ACAD_REACTORS
330
3B
102
}
330
3B
100
AcDbScale
 70
     0
300
3/4" = 1'-0"
140
0.75
141
12.0
290
     1
  0
SCALE
  5
58
102
{ACAD_REACTORS
330
3B
102
}
330
3B
100
AcDbScale
 70
     0
300
1" = 1'-0"
140
1.0
141
12.0
290
     1
  0
SCALE
  5
1C9
102
{ACAD_REACTORS
330
3B
102
}
330
3B
100
AcDbScale
 70
     0
300
1-1/2" = 1'-0"
140
1.5
141
12.0
290
     1
  0
SCALE
  5
1CA
102
{ACAD_REACTORS
330
3B
102
}
330
3B
100
AcDbScale
 70
     0
300
3" = 1'-0"
140
3.0
141
12.0
290
     1
  0
SCALE
  5
5B
102
{ACAD_REACTORS
330
3B
102
}
330
3B
100
AcDbScale
 70
     0
300
6" = 1'-0"
140
6.0
141
12.0
290
     1
  0
SCALE
  5
5C
102
{ACAD_REACTORS
330
3B
102
}
330
3B
100
AcDbScale
 70
     0
300
1'-0" = 1'-0"
140
12.0
141
12.0
290
     1
  0
ACAD_PROXY_OBJECT
  5
2F
102
{ACAD_REACTORS
330
2A
102
}
330
2A
100
AcDbProxyObject
 90
      499
 91
      506
 95
       25
 70
     0
 93
      590
310
42CC9915DA5C99599C985B595049028333333333333E3BF0000000000000FB0201C00030C02405048070000C3008010100C300405A00404030C014050640A01C00030C010500B20280D4
1001
ACAD
1000
AcDbSavedByObjectVersion
1070
     0
  0
ACAD_PROXY_OBJECT
  5
31
102
{ACAD_REACTORS
330
2A
102
}
330
2A
100
AcDbProxyObject
 90
      499
 91
      506
 95
       25
 70
     0
 93
      654
310
424CD108121A5919195B90640502408333333333333E3BF0000000000000FB0201C00030C02409028070000C3008010100C3004080000000000004440A00404030C014050640A01C00030C010300B20280D4
1001
ACAD
1000
AcDbSavedByObjectVersion
1070
     0
  0
ACAD_PROXY_OBJECT
  5
30
102
{ACAD_REACTORS
330
2A
102
}
330
2A
100
AcDbProxyObject
 90
      499
 91
      506
 95
       25
 70
     0
 93
      590
310
42CCD915DA5C99599C985B595059028333333333333E3BF0000000000000FB0201C00030C02405048070000C3008010100C300405A00404030C014050640A01C00030C010500B20280D4
1001
ACAD
1000
AcDbSavedByObjectVersion
1070
     0
  0
ACAD_PROXY_OBJECT
  5
32
102
{ACAD_REACTORS
330
2A
102
}
330
2A
100
AcDbProxyObject
 90
      499
 91
      506
 95
       25
 70
     0
 93
      550
310
4150985CDA58D07406404333333333333E3BF0000000000000FB0201C00030C029048070000C3008010100C30040542201C00030C014050640A01C00030C010500B20280D4
1001
ACAD
1000
AcDbSavedByObjectVersion
1070
     0
  0
ACAD_PROXY_OBJECT
  5
36
102
{ACAD_REACTORS
330
2A
102
}
330
2A
100
AcDbProxyObject
 90
      499
 91
      506
 95
       25
 70
     0
 93
      590
310
42109C9A59DA1D195B90C409028333333333333E3BF0000000000000FB0201C00030C02405048070000C3008010100C30040542201C00030C014050640A01C00030C010500B20280A654
1001
ACAD
1000
AcDbSavedByObjectVersion
1070
     0
  0
ACAD_PROXY_OBJECT
  5
3A
102
{ACAD_REACTORS
330
2A
102
}
330
2A
100
AcDbProxyObject
 90
      499
 91
      506
 95
       25
 70
     0
 93
      614
310
42D0DBDB1BDC90DA185B99D95104090240C333333333333E3BF0000000000000FB0202000030C02405048070000C3008010100C30040542202000030C014050640A01C00030C010500B20280D4
1001
ACAD
1000
AcDbSavedByObjectVersion
1070
     0
  0
ACAD_PROXY_OBJECT
  5
34
102
{ACAD_REACTORS
330
2A
102
}
330
2A
100
AcDbProxyObject
 90
      499
 91
      506
 95
       25
 70
     0
 93
      662
310
4290DBDB98D95C1D1D585B10940D028333333333333E3BF0000000000000FB0201C00030C02409028070000C3008010100C300404000000000000444042201C00030C014050640A01C00030C010300B20280D4
1001
ACAD
1000
AcDbSavedByObjectVersion
1070
     0
  0
ACAD_PROXY_OBJECT
  5
35
102
{ACAD_REACTORS
330
2A
102
}
330
2A
100
AcDbProxyObject
 90
      499
 91
      506
 95
       25
 70
     0
 93
      574
310
40D11A5B50B409028333333333333E3BF0000000000000FB0201C00030C02405048070000C3008010100C30040542201C00030C014050640A01C00030C010500B2028099DFFFFFF4
1001
ACAD
1000
AcDbSavedByObjectVersion
1070
     0
  0
ACAD_PROXY_OBJECT
  5
39
102
{ACAD_REACTORS
330
2A
102
}
330
2A
100
AcDbProxyObject
 90
      499
 91
      506
 95
       25
 70
     0
 93
      606
310
42D19858D95C185D1D195C9B90F409028333333333333E3BF0000000000000FB0201C00030C02405048070000C3008010100C30040542201C00030C014050640A01C00030C010500B20280D4
1001
ACAD
1000
AcDbSavedByObjectVersion
1070
     0
  0
ACAD_PROXY_OBJECT
  5
2B
102
{ACAD_REACTORS
330
2A
102
}
330
2A
100
AcDbProxyObject
 90
      499
 91
      506
 95
       25
 70
     0
 93
      550
310
41119B185D240901404333333333333E3BF0000000000000F90201C00030C01029048070000C3008010100C30040542201C00030C014050640A01C00030C010500B20286D4
1001
ACAD
1000
AcDbSavedByObjectVersion
1070
     0
  0
ACAD_PROXY_OBJECT
  5
2C
102
{ACAD_REACTORS
330
2A
102
}
330
2A
100
AcDbProxyObject
 90
      499
 91
      506
 95
       25
 70
     0
 93
      630
310
43519B185D15DA5D1A115919D95CD0140901404333333333333E3BF0000000000000F90201C00030C0102405048070000C3008010100C300405A00404030C014050640A01C00030C010500B20286D4
1001
ACAD
1000
AcDbSavedByObjectVersion
1070
     0
  0
ACAD_PROXY_OBJECT
  5
2D
102
{ACAD_REACTORS
330
2A
102
}
330
2A
100
AcDbProxyObject
 90
      499
 91
      506
 95
       25
 70
     0
 93
      574
310
41D1DBDD5C985D5910240902404333333333333E3BF0000000000000F90201C00030C01029048070000C3008010100C300405A01C00030C014050640A01C00030C010500B20286D4
1001
ACAD
1000
AcDbSavedByObjectVersion
1070
     0
  0
ACAD_PROXY_OBJECT
  5
2E
102
{ACAD_REACTORS
330
2A
102
}
330
2A
100
AcDbProxyObject
 90
      499
 91
      506
 95
       25
 70
     0
 93
      654
310
4411DBDD5C985D5915DA5D1A115919D95CD0340902404333333333333E3BF0000000000000F90201C00030C0102405048070000C3008010100C300405A00404030C014050640A01C00030C010500B20286D4
1001
ACAD
1000
AcDbSavedByObjectVersion
1070
     0
  0
ACAD_PROXY_OBJECT
  5
38
102
{ACAD_REACTORS
330
2A
102
}
330
2A
100
AcDbProxyObject
 90
      499
 91
      506
 95
       25
 70
     0
 93
      606
310
42D31A5B995C185D1D195C9B90E409028333333333333E3BF0000000000000FB0201C00030C02405048070000C3008010100C30041D42201C00030C014050640A01C00030C010500B20E80D4
1001
ACAD
1000
AcDbSavedByObjectVersion
1070
     0
  0
ACAD_PROXY_OBJECT
  5
33
102
{ACAD_REACTORS
330
2A
102
}
330
2A
100
AcDbProxyObject
 90
      499
 91
      506
 95
       25
 70
     0
 93
      582
310
425499585B1A5CDD1A58D08409028333333333333E3BF0000000000000FB0201C00030C024068070000C3008010100C30040542202000030C014050640A01C00030C010500B20286D4
1001
ACAD
1000
AcDbSavedByObjectVersion
1070
     0
  0
ACAD_PROXY_OBJECT
  5
37
102
{ACAD_REACTORS
330
2A
102
}
330
2A
100
AcDbProxyObject
 90
      499
 91
      506
 95
       25
 70
     0
 93
      574
310
41D51A1A58DAD95B90D409028333333333333E3BF0000000000000FB0201C00030C02405048070000C3008010100C30040543201C00030C014050640A01C00030C010500B20280D4
1001
ACAD
1000
AcDbSavedByObjectVersion
1070
     0
  0
DICTIONARYVAR
  5
123
102
{ACAD_REACTORS
330
59
102
}
330
59
100
DictionaryVariables
280
     0
  1
1:1
  0
DICTIONARYVAR
  5
1CF
102
{ACAD_REACTORS
330
59
102
}
330
59
100
DictionaryVariables
280
     0
  1
2
  0
DICTIONARYVAR
  5
126
102
{ACAD_REACTORS
330
59
102
}
330
59
100
DictionaryVariables
280
     0
  1
5.000000
  0
ENDSEC
  0
EOF
